ISO-10303-21;
HEADER;
FILE_DESCRIPTION (( 'STEP AP214' ),
    '1' );
FILE_NAME ('3431-E0W.STEP',
    '2009-12-21T16:58:58',
    ( ' ' ),
    ( ' ' ),
    'SwSTEP 2.0',
    'SolidWorks 2009',
    '' );
FILE_SCHEMA (( 'AUTOMOTIVE_DESIGN' ));
ENDSEC;

DATA;
#1 = VERTEX_POINT ( 'NONE', #35 ) ;
#2 = ORIENTED_EDGE ( 'NONE', *, *, #4, .F. ) ;
#3 = ORIENTED_EDGE ( 'NONE', *, *, #45, .F. ) ;
#4 = EDGE_CURVE ( 'NONE', #1, #5, #68, .T. ) ;
#5 = VERTEX_POINT ( 'NONE', #7 ) ;
#6 = ORIENTED_EDGE ( 'NONE', *, *, #16, .F. ) ;
#7 = CARTESIAN_POINT ( 'NONE',  ( -6.349999999999997900, 7.776250346772094400E-016, 2.183599001621370700 ) ) ;
#8 = EDGE_LOOP ( 'NONE', ( #47, #25 ) ) ;
#9 = ORIENTED_EDGE ( 'NONE', *, *, #4, .T. ) ;
#10 = ORIENTED_EDGE ( 'NONE', *, *, #40, .T. ) ;
#11 = SURFACE_STYLE_FILL_AREA ( #12 ) ;
#12 = FILL_AREA_STYLE ('',( #18 ) ) ;
#13 = COLOUR_RGB ( '',0.9568627450980391500, 0.9490196078431372100, 0.9607843137254902200 ) ;
#14 = FACE_OUTER_BOUND ( 'NONE', #27, .T. ) ;
#15 = EDGE_CURVE ( 'NONE', #43, #1, #34, .T. ) ;
#16 = EDGE_CURVE ( 'NONE', #43, #17, #23, .T. ) ;
#17 = VERTEX_POINT ( 'NONE', #19 ) ;
#18 = FILL_AREA_STYLE_COLOUR ( '', #13 ) ;
#19 = CARTESIAN_POINT ( 'NONE',  ( -7.776250346772094400E-016, -6.349999999999998800, 2.183599001621372000 ) ) ;
#20 = DIRECTION ( 'NONE',  ( -1.224606353822377000E-016, -1.000000000000000000, 0.0000000000000000000 ) ) ;
#21 = DIRECTION ( 'NONE',  ( -1.000000000000000000, 1.224606353822377300E-016, 0.0000000000000000000 ) ) ;
#22 = AXIS2_PLACEMENT_3D ( 'NONE', #29, #21, #20 ) ;
#23 = CIRCLE ( 'NONE', #22, 15.43000000000000000 ) ;
#24 = CLOSED_SHELL ( 'NONE', ( #37, #59, #42, #50, #26 ) ) ;
#25 = ORIENTED_EDGE ( 'NONE', *, *, #46, .F. ) ;
#26 = ADVANCED_FACE ( 'NONE', ( #14 ), #98, .T. ) ;
#27 = EDGE_LOOP ( 'NONE', ( #49, #39, #54, #48, #28 ) ) ;
#28 = ORIENTED_EDGE ( 'NONE', *, *, #40, .F. ) ;
#29 = CARTESIAN_POINT ( 'NONE',  ( 0.0000000000000000000, 0.0000000000000000000, 16.24640099837863300 ) ) ;
#30 = DIRECTION ( 'NONE',  ( 0.0000000000000000000, 0.0000000000000000000, -1.000000000000000000 ) ) ;
#31 = DIRECTION ( 'NONE',  ( 1.000000000000000000, 0.0000000000000000000, 0.0000000000000000000 ) ) ;
#32 = CARTESIAN_POINT ( 'NONE',  ( 0.0000000000000000000, 0.0000000000000000000, 16.24640099837863300 ) ) ;
#33 = AXIS2_PLACEMENT_3D ( 'NONE', #32, #31, #30 ) ;
#34 = CIRCLE ( 'NONE', #33, 15.43000000000000000 ) ;
#35 = CARTESIAN_POINT ( 'NONE',  ( 0.0000000000000000000, 6.349999999999998800, 2.183599001621372000 ) ) ;
#36 = MANIFOLD_SOLID_BREP ( 'NONE', #24 ) ;
#37 = ADVANCED_FACE ( 'NONE', ( #110 ), #123, .T. ) ;
#38 = ORIENTED_EDGE ( 'NONE', *, *, #15, .T. ) ;
#39 = ORIENTED_EDGE ( 'NONE', *, *, #46, .T. ) ;
#40 = EDGE_CURVE ( 'NONE', #5, #17, #149, .T. ) ;
#41 = EDGE_CURVE ( 'NONE', #17, #55, #125, .T. ) ;
#42 = ADVANCED_FACE ( 'NONE', ( #140 ), #176, .F. ) ;
#43 = VERTEX_POINT ( 'NONE', #177 ) ;
#44 = ORIENTED_EDGE ( 'NONE', *, *, #56, .F. ) ;
#45 = EDGE_CURVE ( 'NONE', #62, #55, #166, .T. ) ;
#46 = EDGE_CURVE ( 'NONE', #51, #62, #173, .T. ) ;
#47 = ORIENTED_EDGE ( 'NONE', *, *, #63, .F. ) ;
#48 = ORIENTED_EDGE ( 'NONE', *, *, #41, .F. ) ;
#49 = ORIENTED_EDGE ( 'NONE', *, *, #53, .F. ) ;
#50 = ADVANCED_FACE ( 'NONE', ( #174 ), #249, .F. ) ;
#51 = VERTEX_POINT ( 'NONE', #199 ) ;
#52 = ORIENTED_EDGE ( 'NONE', *, *, #53, .T. ) ;
#53 = EDGE_CURVE ( 'NONE', #51, #5, #238, .T. ) ;
#54 = ORIENTED_EDGE ( 'NONE', *, *, #45, .T. ) ;
#55 = VERTEX_POINT ( 'NONE', #234 ) ;
#56 = EDGE_CURVE ( 'NONE', #55, #1, #247, .T. ) ;
#57 = ORIENTED_EDGE ( 'NONE', *, *, #16, .T. ) ;
#58 = ORIENTED_EDGE ( 'NONE', *, *, #15, .F. ) ;
#59 = ADVANCED_FACE ( 'NONE', ( #248 ), #226, .F. ) ;
#60 = EDGE_LOOP ( 'NONE', ( #61, #52, #2, #44, #3 ) ) ;
#61 = ORIENTED_EDGE ( 'NONE', *, *, #63, .T. ) ;
#62 = VERTEX_POINT ( 'NONE', #217 ) ;
#63 = EDGE_CURVE ( 'NONE', #62, #51, #216, .T. ) ;
#64 = DIRECTION ( 'NONE',  ( 1.000000000000000000, 0.0000000000000000000, 0.0000000000000000000 ) ) ;
#65 = DIRECTION ( 'NONE',  ( -0.0000000000000000000, -0.0000000000000000000, 1.000000000000000000 ) ) ;
#66 = CARTESIAN_POINT ( 'NONE',  ( 0.0000000000000000000, 0.0000000000000000000, 2.183599001621370700 ) ) ;
#67 = AXIS2_PLACEMENT_3D ( 'NONE', #66, #65, #64 ) ;
#68 = CIRCLE ( 'NONE', #67, 6.349999999999997900 ) ;
#69 =( LENGTH_UNIT ( ) NAMED_UNIT ( * ) SI_UNIT ( .MILLI., .METRE. ) );
#70 = MECHANICAL_DESIGN_GEOMETRIC_PRESENTATION_REPRESENTATION (  '', ( #72 ), #99 ) ;
#71 = PRESENTATION_LAYER_ASSIGNMENT (  '', '', ( #72 ) ) ;
#72 = STYLED_ITEM ( 'NONE', ( #73 ), #26 ) ;
#73 = PRESENTATION_STYLE_ASSIGNMENT (( #74 ) ) ;
#74 = SURFACE_STYLE_USAGE ( .BOTH. , #75 ) ;
#75 = SURFACE_SIDE_STYLE ('',( #11 ) ) ;
#76 = EDGE_LOOP ( 'NONE', ( #58, #57, #79, #78 ) ) ;
#77 = EDGE_LOOP ( 'NONE', ( #6, #38, #9, #10 ) ) ;
#78 = ORIENTED_EDGE ( 'NONE', *, *, #56, .T. ) ;
#79 = ORIENTED_EDGE ( 'NONE', *, *, #41, .T. ) ;
#80 = UNCERTAINTY_MEASURE_WITH_UNIT (LENGTH_MEASURE( 1.000000000000000100E-005 ), #69, 'distance_accuracy_value', 'NONE');
#81 =( NAMED_UNIT ( * ) SI_UNIT ( $, .STERADIAN. ) SOLID_ANGLE_UNIT ( ) );
#82 =( LENGTH_UNIT ( ) NAMED_UNIT ( * ) SI_UNIT ( .MILLI., .METRE. ) );
#83 = DIRECTION ( 'NONE',  ( 1.000000000000000000, 0.0000000000000000000, 0.0000000000000000000 ) ) ;
#84 = DIRECTION ( 'NONE',  ( -0.0000000000000000000, -0.0000000000000000000, 1.000000000000000000 ) ) ;
#85 = AXIS2_PLACEMENT_3D ( 'NONE', #97, #84, #83 ) ;
#86 = COLOUR_RGB ( '',0.7960784313725489700, 0.8235294117647058400, 0.9372549019607843100 ) ;
#87 = FILL_AREA_STYLE_COLOUR ( '', #86 ) ;
#88 =( NAMED_UNIT ( * ) PLANE_ANGLE_UNIT ( ) SI_UNIT ( $, .RADIAN. ) );
#89 = MECHANICAL_DESIGN_GEOMETRIC_PRESENTATION_REPRESENTATION (  '', ( #91 ), #111 ) ;
#90 = PRESENTATION_LAYER_ASSIGNMENT (  '', '', ( #91 ) ) ;
#91 = STYLED_ITEM ( 'NONE', ( #92 ), #36 ) ;
#92 = PRESENTATION_STYLE_ASSIGNMENT (( #93 ) ) ;
#93 = SURFACE_STYLE_USAGE ( .BOTH. , #94 ) ;
#94 = SURFACE_SIDE_STYLE ('',( #95 ) ) ;
#95 = SURFACE_STYLE_FILL_AREA ( #96 ) ;
#96 = FILL_AREA_STYLE ('',( #87 ) ) ;
#97 = CARTESIAN_POINT ( 'NONE',  ( 0.0000000000000000000, 0.0000000000000000000, 8.333554268807953100 ) ) ;
#98 = CYLINDRICAL_SURFACE ( 'NONE', #85, 6.349999999999999600 ) ;
#99 =( GEOMETRIC_REPRESENTATION_CONTEXT ( 3 ) GLOBAL_UNCERTAINTY_ASSIGNED_CONTEXT ( ( #80 ) ) GLOBAL_UNIT_ASSIGNED_CONTEXT ( ( #69, #88, #81 ) ) REPRESENTATION_CONTEXT ( 'NONE', 'WORKASPACE' ) );
#100 = UNCERTAINTY_MEASURE_WITH_UNIT (LENGTH_MEASURE( 1.000000000000000100E-005 ), #82, 'distance_accuracy_value', 'NONE');
#101 =( NAMED_UNIT ( * ) SI_UNIT ( $, .STERADIAN. ) SOLID_ANGLE_UNIT ( ) );
#102 =( NAMED_UNIT ( * ) PLANE_ANGLE_UNIT ( ) SI_UNIT ( $, .RADIAN. ) );
#103 = SURFACE_STYLE_USAGE ( .BOTH. , #104 ) ;
#104 = SURFACE_SIDE_STYLE ('',( #105 ) ) ;
#105 = SURFACE_STYLE_FILL_AREA ( #117 ) ;
#106 = STYLED_ITEM ( 'NONE', ( #107 ), #37 ) ;
#107 = PRESENTATION_STYLE_ASSIGNMENT (( #103 ) ) ;
#108 = COLOUR_RGB ( '',0.9568627450980391500, 0.9490196078431372100, 0.9607843137254902200 ) ;
#109 =( NAMED_UNIT ( * ) PLANE_ANGLE_UNIT ( ) SI_UNIT ( $, .RADIAN. ) );
#110 = FACE_OUTER_BOUND ( 'NONE', #60, .T. ) ;
#111 =( GEOMETRIC_REPRESENTATION_CONTEXT ( 3 ) GLOBAL_UNCERTAINTY_ASSIGNED_CONTEXT ( ( #100 ) ) GLOBAL_UNIT_ASSIGNED_CONTEXT ( ( #82, #102, #101 ) ) REPRESENTATION_CONTEXT ( 'NONE', 'WORKASPACE' ) );
#112 = UNCERTAINTY_MEASURE_WITH_UNIT (LENGTH_MEASURE( 1.000000000000000100E-005 ), #114, 'distance_accuracy_value', 'NONE');
#113 =( NAMED_UNIT ( * ) SI_UNIT ( $, .STERADIAN. ) SOLID_ANGLE_UNIT ( ) );
#114 =( LENGTH_UNIT ( ) NAMED_UNIT ( * ) SI_UNIT ( .MILLI., .METRE. ) );
#115 = MECHANICAL_DESIGN_GEOMETRIC_PRESENTATION_REPRESENTATION (  '', ( #106 ), #124 ) ;
#116 = PRESENTATION_LAYER_ASSIGNMENT (  '', '', ( #106 ) ) ;
#117 = FILL_AREA_STYLE ('',( #118 ) ) ;
#118 = FILL_AREA_STYLE_COLOUR ( '', #108 ) ;
#119 = DIRECTION ( 'NONE',  ( 1.000000000000000000, 0.0000000000000000000, 0.0000000000000000000 ) ) ;
#120 = DIRECTION ( 'NONE',  ( -0.0000000000000000000, -0.0000000000000000000, 1.000000000000000000 ) ) ;
#121 = CARTESIAN_POINT ( 'NONE',  ( 0.0000000000000000000, 0.0000000000000000000, 8.333554268807953100 ) ) ;
#122 = AXIS2_PLACEMENT_3D ( 'NONE', #121, #120, #119 ) ;
#123 = CYLINDRICAL_SURFACE ( 'NONE', #122, 6.349999999999999600 ) ;
#124 =( GEOMETRIC_REPRESENTATION_CONTEXT ( 3 ) GLOBAL_UNCERTAINTY_ASSIGNED_CONTEXT ( ( #112 ) ) GLOBAL_UNIT_ASSIGNED_CONTEXT ( ( #114, #109, #113 ) ) REPRESENTATION_CONTEXT ( 'NONE', 'WORKASPACE' ) );
#125 = CIRCLE ( 'NONE', #146, 6.349999999999997900 ) ;
#126 = DIRECTION ( 'NONE',  ( 1.000000000000000000, 0.0000000000000000000, 0.0000000000000000000 ) ) ;
#127 = DIRECTION ( 'NONE',  ( -0.0000000000000000000, -0.0000000000000000000, 1.000000000000000000 ) ) ;
#128 =( NAMED_UNIT ( * ) PLANE_ANGLE_UNIT ( ) SI_UNIT ( $, .RADIAN. ) );
#129 =( LENGTH_UNIT ( ) NAMED_UNIT ( * ) SI_UNIT ( .MILLI., .METRE. ) );
#130 =( GEOMETRIC_REPRESENTATION_CONTEXT ( 3 ) GLOBAL_UNCERTAINTY_ASSIGNED_CONTEXT ( ( #151 ) ) GLOBAL_UNIT_ASSIGNED_CONTEXT ( ( #134, #128, #142 ) ) REPRESENTATION_CONTEXT ( 'NONE', 'WORKASPACE' ) );
#131 = SURFACE_STYLE_FILL_AREA ( #132 ) ;
#132 = FILL_AREA_STYLE ('',( #133 ) ) ;
#133 = FILL_AREA_STYLE_COLOUR ( '', #139 ) ;
#134 =( LENGTH_UNIT ( ) NAMED_UNIT ( * ) SI_UNIT ( .MILLI., .METRE. ) );
#135 = DIRECTION ( 'NONE',  ( 1.000000000000000000, 0.0000000000000000000, 0.0000000000000000000 ) ) ;
#136 = PRESENTATION_STYLE_ASSIGNMENT (( #137 ) ) ;
#137 = SURFACE_STYLE_USAGE ( .BOTH. , #138 ) ;
#138 = SURFACE_SIDE_STYLE ('',( #131 ) ) ;
#139 = COLOUR_RGB ( '',0.9568627450980391500, 0.9490196078431372100, 0.9607843137254902200 ) ;
#140 = FACE_OUTER_BOUND ( 'NONE', #77, .T. ) ;
#141 = CARTESIAN_POINT ( 'NONE',  ( 0.0000000000000000000, 0.0000000000000000000, 2.183599001621370700 ) ) ;
#142 =( NAMED_UNIT ( * ) SI_UNIT ( $, .STERADIAN. ) SOLID_ANGLE_UNIT ( ) );
#143 = MECHANICAL_DESIGN_GEOMETRIC_PRESENTATION_REPRESENTATION (  '', ( #145 ), #130 ) ;
#144 = PRESENTATION_LAYER_ASSIGNMENT (  '', '', ( #145 ) ) ;
#145 = STYLED_ITEM ( 'NONE', ( #136 ), #42 ) ;
#146 = AXIS2_PLACEMENT_3D ( 'NONE', #141, #127, #126 ) ;
#147 = CARTESIAN_POINT ( 'NONE',  ( 0.0000000000000000000, 0.0000000000000000000, 2.183599001621370700 ) ) ;
#148 = AXIS2_PLACEMENT_3D ( 'NONE', #147, #150, #135 ) ;
#149 = CIRCLE ( 'NONE', #148, 6.349999999999997900 ) ;
#150 = DIRECTION ( 'NONE',  ( -0.0000000000000000000, -0.0000000000000000000, 1.000000000000000000 ) ) ;
#151 = UNCERTAINTY_MEASURE_WITH_UNIT (LENGTH_MEASURE( 1.000000000000000100E-005 ), #134, 'distance_accuracy_value', 'NONE');
#152 = SURFACE_SIDE_STYLE ('',( #153 ) ) ;
#153 = SURFACE_STYLE_FILL_AREA ( #154 ) ;
#154 = FILL_AREA_STYLE ('',( #155 ) ) ;
#155 = FILL_AREA_STYLE_COLOUR ( '', #156 ) ;
#156 = COLOUR_RGB ( '',0.9568627450980391500, 0.9490196078431372100, 0.9607843137254902200 ) ;
#157 = DIRECTION ( 'NONE',  ( -0.0000000000000000000, -0.0000000000000000000, 1.000000000000000000 ) ) ;
#158 = VECTOR ( 'NONE', #157, 1000.000000000000000 ) ;
#159 = CARTESIAN_POINT ( 'NONE',  ( 0.0000000000000000000, 0.0000000000000000000, 16.24640099837863300 ) ) ;
#160 = DIRECTION ( 'NONE',  ( -1.000000000000000000, 0.0000000000000000000, 0.0000000000000000000 ) ) ;
#161 = DIRECTION ( 'NONE',  ( 1.000000000000000000, 0.0000000000000000000, 0.0000000000000000000 ) ) ;
#162 = DIRECTION ( 'NONE',  ( -0.0000000000000000000, -0.0000000000000000000, 1.000000000000000000 ) ) ;
#163 = CARTESIAN_POINT ( 'NONE',  ( 0.0000000000000000000, 0.0000000000000000000, -2.183599001621370700 ) ) ;
#164 = AXIS2_PLACEMENT_3D ( 'NONE', #163, #162, #161 ) ;
#165 = CARTESIAN_POINT ( 'NONE',  ( 6.349999999999999600, 0.0000000000000000000, 8.333554268807953100 ) ) ;
#166 = LINE ( 'NONE', #165, #158 ) ;
#167 = MECHANICAL_DESIGN_GEOMETRIC_PRESENTATION_REPRESENTATION (  '', ( #169 ), #222 ) ;
#168 = PRESENTATION_LAYER_ASSIGNMENT (  '', '', ( #169 ) ) ;
#169 = STYLED_ITEM ( 'NONE', ( #170 ), #50 ) ;
#170 = PRESENTATION_STYLE_ASSIGNMENT (( #171 ) ) ;
#171 = SURFACE_STYLE_USAGE ( .BOTH. , #152 ) ;
#172 = DIRECTION ( 'NONE',  ( 0.0000000000000000000, 1.000000000000000000, 0.0000000000000000000 ) ) ;
#173 = CIRCLE ( 'NONE', #164, 6.350000000000000500 ) ;
#174 = FACE_OUTER_BOUND ( 'NONE', #8, .T. ) ;
#175 = AXIS2_PLACEMENT_3D ( 'NONE', #159, #160, #172 ) ;
#176 = SPHERICAL_SURFACE ( 'NONE', #175, 15.43000000000000000 ) ;
#177 = CARTESIAN_POINT ( 'NONE',  ( 0.0000000000000000000, 9.447838019739639300E-016, 0.8164009983786315600 ) ) ;
#178 =( NAMED_UNIT ( * ) PLANE_ANGLE_UNIT ( ) SI_UNIT ( $, .RADIAN. ) );
#179 = DIRECTION ( 'NONE',  ( 1.000000000000000000, 0.0000000000000000000, 0.0000000000000000000 ) ) ;
#180 = DIRECTION ( 'NONE',  ( 0.0000000000000000000, 0.0000000000000000000, 1.000000000000000000 ) ) ;
#181 = AXIS2_PLACEMENT_3D ( 'NONE', #211, #180, #179 ) ;
#182 =( GEOMETRIC_REPRESENTATION_CONTEXT ( 3 ) GLOBAL_UNCERTAINTY_ASSIGNED_CONTEXT ( ( #183 ) ) GLOBAL_UNIT_ASSIGNED_CONTEXT ( ( #186, #185, #184 ) ) REPRESENTATION_CONTEXT ( 'NONE', 'WORKASPACE' ) );
#183 = UNCERTAINTY_MEASURE_WITH_UNIT (LENGTH_MEASURE( 1.000000000000000100E-005 ), #186, 'distance_accuracy_value', 'NONE');
#184 =( NAMED_UNIT ( * ) SI_UNIT ( $, .STERADIAN. ) SOLID_ANGLE_UNIT ( ) );
#185 =( NAMED_UNIT ( * ) PLANE_ANGLE_UNIT ( ) SI_UNIT ( $, .RADIAN. ) );
#186 =( LENGTH_UNIT ( ) NAMED_UNIT ( * ) SI_UNIT ( .MILLI., .METRE. ) );
#187 = MECHANICAL_DESIGN_GEOMETRIC_PRESENTATION_REPRESENTATION (  '', ( #189 ), #182 ) ;
#188 = PRESENTATION_LAYER_ASSIGNMENT (  '', '', ( #189 ) ) ;
#189 = STYLED_ITEM ( 'NONE', ( #190 ), #231 ) ;
#190 = PRESENTATION_STYLE_ASSIGNMENT (( #191 ) ) ;
#191 = SURFACE_STYLE_USAGE ( .BOTH. , #192 ) ;
#192 = SURFACE_SIDE_STYLE ('',( #193 ) ) ;
#193 = SURFACE_STYLE_FILL_AREA ( #194 ) ;
#194 = FILL_AREA_STYLE ('',( #195 ) ) ;
#195 = FILL_AREA_STYLE_COLOUR ( '', #196 ) ;
#196 = COLOUR_RGB ( '',0.7960784313725489700, 0.8235294117647058400, 0.9372549019607843100 ) ;
#197 = DIRECTION ( 'NONE',  ( 1.000000000000000000, 0.0000000000000000000, 0.0000000000000000000 ) ) ;
#198 = DIRECTION ( 'NONE',  ( 0.0000000000000000000, -0.0000000000000000000, 1.000000000000000000 ) ) ;
#199 = CARTESIAN_POINT ( 'NONE',  ( -6.350000000000001400, 7.776250346772097400E-016, -2.183599001621370700 ) ) ;
#200 =( NAMED_UNIT ( * ) PLANE_ANGLE_UNIT ( ) SI_UNIT ( $, .RADIAN. ) );
#201 =( LENGTH_UNIT ( ) NAMED_UNIT ( * ) SI_UNIT ( .MILLI., .METRE. ) );
#202 = MECHANICAL_DESIGN_GEOMETRIC_PRESENTATION_REPRESENTATION (  '', ( #204 ), #227 ) ;
#203 = PRESENTATION_LAYER_ASSIGNMENT (  '', '', ( #204 ) ) ;
#204 = STYLED_ITEM ( 'NONE', ( #205 ), #59 ) ;
#205 = PRESENTATION_STYLE_ASSIGNMENT (( #206 ) ) ;
#206 = SURFACE_STYLE_USAGE ( .BOTH. , #207 ) ;
#207 = SURFACE_SIDE_STYLE ('',( #239 ) ) ;
#208 =( NAMED_UNIT ( * ) SI_UNIT ( $, .STERADIAN. ) SOLID_ANGLE_UNIT ( ) );
#209 =( NAMED_UNIT ( * ) PLANE_ANGLE_UNIT ( ) SI_UNIT ( $, .RADIAN. ) );
#210 =( LENGTH_UNIT ( ) NAMED_UNIT ( * ) SI_UNIT ( .MILLI., .METRE. ) );
#211 = CARTESIAN_POINT ( 'NONE',  ( 0.0000000000000000000, 0.0000000000000000000, 0.0000000000000000000 ) ) ;
#212 = DIRECTION ( 'NONE',  ( 1.000000000000000000, 0.0000000000000000000, 0.0000000000000000000 ) ) ;
#213 = DIRECTION ( 'NONE',  ( -0.0000000000000000000, -0.0000000000000000000, 1.000000000000000000 ) ) ;
#214 = CARTESIAN_POINT ( 'NONE',  ( 0.0000000000000000000, 0.0000000000000000000, -2.183599001621370700 ) ) ;
#215 = AXIS2_PLACEMENT_3D ( 'NONE', #214, #213, #212 ) ;
#216 = CIRCLE ( 'NONE', #215, 6.350000000000000500 ) ;
#217 = CARTESIAN_POINT ( 'NONE',  ( 6.350000000000000500, 0.0000000000000000000, -2.183599001621370700 ) ) ;
#218 = DIRECTION ( 'NONE',  ( 0.0000000000000000000, 1.000000000000000000, 0.0000000000000000000 ) ) ;
#219 = DIRECTION ( 'NONE',  ( -1.000000000000000000, 0.0000000000000000000, 0.0000000000000000000 ) ) ;
#220 = CARTESIAN_POINT ( 'NONE',  ( 0.0000000000000000000, 0.0000000000000000000, 16.24640099837863300 ) ) ;
#221 =( NAMED_UNIT ( * ) SI_UNIT ( $, .STERADIAN. ) SOLID_ANGLE_UNIT ( ) );
#222 =( GEOMETRIC_REPRESENTATION_CONTEXT ( 3 ) GLOBAL_UNCERTAINTY_ASSIGNED_CONTEXT ( ( #230 ) ) GLOBAL_UNIT_ASSIGNED_CONTEXT ( ( #129, #178, #221 ) ) REPRESENTATION_CONTEXT ( 'NONE', 'WORKASPACE' ) );
#223 = CARTESIAN_POINT ( 'NONE',  ( 0.0000000000000000000, 5.510910596163088600E-016, -2.183599001621371100 ) ) ;
#224 = AXIS2_PLACEMENT_3D ( 'NONE', #223, #198, #197 ) ;
#225 = AXIS2_PLACEMENT_3D ( 'NONE', #220, #219, #218 ) ;
#226 = SPHERICAL_SURFACE ( 'NONE', #225, 15.43000000000000000 ) ;
#227 =( GEOMETRIC_REPRESENTATION_CONTEXT ( 3 ) GLOBAL_UNCERTAINTY_ASSIGNED_CONTEXT ( ( #228 ) ) GLOBAL_UNIT_ASSIGNED_CONTEXT ( ( #201, #200, #229 ) ) REPRESENTATION_CONTEXT ( 'NONE', 'WORKASPACE' ) );
#228 = UNCERTAINTY_MEASURE_WITH_UNIT (LENGTH_MEASURE( 1.000000000000000100E-005 ), #201, 'distance_accuracy_value', 'NONE');
#229 =( NAMED_UNIT ( * ) SI_UNIT ( $, .STERADIAN. ) SOLID_ANGLE_UNIT ( ) );
#230 = UNCERTAINTY_MEASURE_WITH_UNIT (LENGTH_MEASURE( 1.000000000000000100E-005 ), #129, 'distance_accuracy_value', 'NONE');
#231 = ADVANCED_BREP_SHAPE_REPRESENTATION ( '3431-E0W', ( #36, #181 ), #232 ) ;
#232 =( GEOMETRIC_REPRESENTATION_CONTEXT ( 3 ) GLOBAL_UNCERTAINTY_ASSIGNED_CONTEXT ( ( #233 ) ) GLOBAL_UNIT_ASSIGNED_CONTEXT ( ( #210, #209, #208 ) ) REPRESENTATION_CONTEXT ( 'NONE', 'WORKASPACE' ) );
#233 = UNCERTAINTY_MEASURE_WITH_UNIT (LENGTH_MEASURE( 1.000000000000000100E-005 ), #210, 'distance_accuracy_value', 'NONE');
#234 = CARTESIAN_POINT ( 'NONE',  ( 6.349999999999997900, 0.0000000000000000000, 2.183599001621370700 ) ) ;
#235 = DIRECTION ( 'NONE',  ( -0.0000000000000000000, -0.0000000000000000000, 1.000000000000000000 ) ) ;
#236 = VECTOR ( 'NONE', #235, 1000.000000000000000 ) ;
#237 = CARTESIAN_POINT ( 'NONE',  ( -6.349999999999999600, 7.776250346772095400E-016, 8.333554268807953100 ) ) ;
#238 = LINE ( 'NONE', #237, #236 ) ;
#239 = SURFACE_STYLE_FILL_AREA ( #240 ) ;
#240 = FILL_AREA_STYLE ('',( #241 ) ) ;
#241 = FILL_AREA_STYLE_COLOUR ( '', #242 ) ;
#242 = COLOUR_RGB ( '',0.9568627450980391500, 0.9490196078431372100, 0.9607843137254902200 ) ;
#243 = DIRECTION ( 'NONE',  ( 1.000000000000000000, 0.0000000000000000000, 0.0000000000000000000 ) ) ;
#244 = DIRECTION ( 'NONE',  ( -0.0000000000000000000, -0.0000000000000000000, 1.000000000000000000 ) ) ;
#245 = CARTESIAN_POINT ( 'NONE',  ( 0.0000000000000000000, 0.0000000000000000000, 2.183599001621370700 ) ) ;
#246 = AXIS2_PLACEMENT_3D ( 'NONE', #245, #244, #243 ) ;
#247 = CIRCLE ( 'NONE', #246, 6.349999999999997900 ) ;
#248 = FACE_OUTER_BOUND ( 'NONE', #76, .T. ) ;
#249 = PLANE ( 'NONE',  #224 ) ;
#250 = APPLICATION_CONTEXT ( 'automotive_design' ) ;
#251 = PRODUCT_DEFINITION ( 'UNKNOWN', '', #261, #252 ) ;
#252 = PRODUCT_DEFINITION_CONTEXT ( 'detailed design', #254, 'design' ) ;
#253 = APPLICATION_PROTOCOL_DEFINITION ( 'draft international standard', 'automotive_design', 1998, #254 ) ;
#254 = APPLICATION_CONTEXT ( 'automotive_design' ) ;
#255 = PRODUCT ( '3431-E0W', '3431-E0W', '', ( #256 ) ) ;
#256 = PRODUCT_CONTEXT ( 'NONE', #250, 'mechanical' ) ;
#257 = APPLICATION_PROTOCOL_DEFINITION ( 'draft international standard', 'automotive_design', 1998, #250 ) ;
#258 = SHAPE_DEFINITION_REPRESENTATION ( #259, #231 ) ;
#259 = PRODUCT_DEFINITION_SHAPE ( 'NONE', 'NONE',  #251 ) ;
#260 = PRODUCT_RELATED_PRODUCT_CATEGORY ( 'part', '', ( #255 ) ) ;
#261 = PRODUCT_DEFINITION_FORMATION_WITH_SPECIFIED_SOURCE ( 'ANY', '', #255, .NOT_KNOWN. ) ;
ENDSEC;
END-ISO-10303-21;
