ISO-10303-21;
HEADER;
FILE_DESCRIPTION (( 'STEP AP203' ),
    '1' );
FILE_NAME ('Web Model 84488_48197.step',
    '2017-05-19T14:57:42',
    ( '' ),
    ( '' ),
    'SwSTEP 2.0',
    'SolidWorks 2016',
    '' );
FILE_SCHEMA (( 'CONFIG_CONTROL_DESIGN' ));
ENDSEC;

DATA;
#1 = ORIENTED_EDGE ( 'NONE', *, *, #68, .T. ) ;
#2 = CARTESIAN_POINT ( 'NONE',  ( 12.50000000000000400, -12.50000000000000500, 2.000000000000000000 ) ) ;
#3 = APPROVAL ( #181, 'UNSPECIFIED' ) ;
#4 = DIRECTION ( 'NONE',  ( -1.000000000000000000, -1.387778780781445700E-016, 0.0000000000000000000 ) ) ;
#5 =( NAMED_UNIT ( * ) PLANE_ANGLE_UNIT ( ) SI_UNIT ( $, .RADIAN. ) );
#6 = FACE_OUTER_BOUND ( 'NONE', #32, .T. ) ;
#7 = DIRECTION ( 'NONE',  ( -0.0000000000000000000, 0.0000000000000000000, 1.000000000000000000 ) ) ;
#8 = APPLICATION_CONTEXT ( 'configuration controlled 3d designs of mechanical parts and assemblies' ) ;
#9 = DIRECTION ( 'NONE',  ( -0.0000000000000000000, -0.0000000000000000000, -1.000000000000000000 ) ) ;
#10 = EDGE_CURVE ( 'NONE', #113, #150, #211, .T. ) ;
#11 = COORDINATED_UNIVERSAL_TIME_OFFSET ( 5, 0, .BEHIND. ) ;
#12 = LINE ( 'NONE', #180, #152 ) ;
#13 = ORIENTED_EDGE ( 'NONE', *, *, #80, .F. ) ;
#14 = APPROVAL ( #139, 'UNSPECIFIED' ) ;
#15 = SHAPE_DEFINITION_REPRESENTATION ( #214, #111 ) ;
#16 = ORIENTED_EDGE ( 'NONE', *, *, #10, .F. ) ;
#17 = APPROVAL_DATE_TIME ( #202, #119 ) ;
#18 = ADVANCED_FACE ( 'NONE', ( #33 ), #178, .F. ) ;
#19 = CC_DESIGN_PERSON_AND_ORGANIZATION_ASSIGNMENT ( #63, #105, ( #106 ) ) ;
#20 = PLANE ( 'NONE',  #184 ) ;
#21 = CARTESIAN_POINT ( 'NONE',  ( -12.50000000000000000, 12.49999999999999600, 2.000000000000000000 ) ) ;
#22 = LOCAL_TIME ( 10, 57, 42.00000000000000000, #125 ) ;
#23 = ORIENTED_EDGE ( 'NONE', *, *, #147, .F. ) ;
#24 = DIRECTION ( 'NONE',  ( -0.0000000000000000000, -0.0000000000000000000, -1.000000000000000000 ) ) ;
#25 = CARTESIAN_POINT ( 'NONE',  ( -12.49999999999999600, -12.50000000000000500, 0.0000000000000000000 ) ) ;
#26 = ADVANCED_FACE ( 'NONE', ( #204 ), #222, .F. ) ;
#27 = CARTESIAN_POINT ( 'NONE',  ( -12.50000000000000000, 12.49999999999999600, 2.000000000000000000 ) ) ;
#28 = DIRECTION ( 'NONE',  ( -1.387778780781445700E-016, 1.000000000000000000, -0.0000000000000000000 ) ) ;
#29 = APPLICATION_PROTOCOL_DEFINITION ( 'international standard', 'config_control_design', 1994, #8 ) ;
#30 = PLANE ( 'NONE',  #143 ) ;
#31 = ORIENTED_EDGE ( 'NONE', *, *, #187, .F. ) ;
#32 = EDGE_LOOP ( 'NONE', ( #35, #230, #234, #148 ) ) ;
#33 = FACE_OUTER_BOUND ( 'NONE', #51, .T. ) ;
#34 = VERTEX_POINT ( 'NONE', #197 ) ;
#35 = ORIENTED_EDGE ( 'NONE', *, *, #80, .T. ) ;
#36 = EDGE_CURVE ( 'NONE', #83, #64, #190, .T. ) ;
#37 = CALENDAR_DATE ( 2017, 19, 5 ) ;
#38 = ORIENTED_EDGE ( 'NONE', *, *, #226, .T. ) ;
#39 =( NAMED_UNIT ( * ) SI_UNIT ( $, .STERADIAN. ) SOLID_ANGLE_UNIT ( ) );
#40 = DIRECTION ( 'NONE',  ( 0.0000000000000000000, 0.0000000000000000000, 1.000000000000000000 ) ) ;
#41 = DATE_AND_TIME ( #93, #22 ) ;
#42 = ORIENTED_EDGE ( 'NONE', *, *, #36, .F. ) ;
#43 = DATE_TIME_ROLE ( 'creation_date' ) ;
#44 = DIRECTION ( 'NONE',  ( 1.387778780781445700E-016, -1.000000000000000000, 0.0000000000000000000 ) ) ;
#45 = DATE_AND_TIME ( #37, #94 ) ;
#46 = EDGE_CURVE ( 'NONE', #113, #165, #76, .T. ) ;
#47 = LINE ( 'NONE', #74, #233 ) ;
#48 = ORGANIZATION ( 'UNSPECIFIED', 'UNSPECIFIED', '' ) ;
#49 = VECTOR ( 'NONE', #100, 1000.000000000000000 ) ;
#50 = EDGE_CURVE ( 'NONE', #237, #113, #163, .T. ) ;
#51 = EDGE_LOOP ( 'NONE', ( #127, #231, #95, #182 ) ) ;
#52 = LINE ( 'NONE', #135, #203 ) ;
#53 = CARTESIAN_POINT ( 'NONE',  ( -12.50000000000000000, 12.49999999999999600, 2.000000000000000000 ) ) ;
#54 = DIRECTION ( 'NONE',  ( -1.000000000000000000, -0.0000000000000000000, -0.0000000000000000000 ) ) ;
#55 = ADVANCED_FACE ( 'NONE', ( #6 ), #30, .F. ) ;
#56 = EDGE_LOOP ( 'NONE', ( #13, #23, #201, #42 ) ) ;
#57 = DIRECTION ( 'NONE',  ( 0.0000000000000000000, -1.000000000000000000, 0.0000000000000000000 ) ) ;
#58 = DIRECTION ( 'NONE',  ( 0.0000000000000000000, 1.000000000000000000, 0.0000000000000000000 ) ) ;
#59 = DIRECTION ( 'NONE',  ( -1.387778780781445700E-016, 1.000000000000000000, -0.0000000000000000000 ) ) ;
#60 = DIRECTION ( 'NONE',  ( 0.0000000000000000000, -0.0000000000000000000, 1.000000000000000000 ) ) ;
#61 = CARTESIAN_POINT ( 'NONE',  ( 12.50000000000000000, 12.49999999999999600, 2.000000000000000000 ) ) ;
#62 = DATE_TIME_ROLE ( 'classification_date' ) ;
#63 = PERSON_AND_ORGANIZATION ( #170, #48 ) ;
#64 = VERTEX_POINT ( 'NONE', #225 ) ;
#65 = SECURITY_CLASSIFICATION_LEVEL ( 'unclassified' ) ;
#66 = VECTOR ( 'NONE', #28, 1000.000000000000000 ) ;
#67 = EDGE_CURVE ( 'NONE', #64, #165, #12, .T. ) ;
#68 = EDGE_CURVE ( 'NONE', #237, #64, #115, .T. ) ;
#69 = CLOSED_SHELL ( 'NONE', ( #55, #18, #117, #235, #123, #26 ) ) ;
#70 = PERSON_AND_ORGANIZATION ( #170, #48 ) ;
#71 = ORIENTED_EDGE ( 'NONE', *, *, #46, .T. ) ;
#72 = PRODUCT ( 'Web Model 84488_48197', 'Web Model 84488_48197', '', ( #122 ) ) ;
#73 = PERSON_AND_ORGANIZATION_ROLE ( 'creator' ) ;
#74 = CARTESIAN_POINT ( 'NONE',  ( -12.50000000000000000, 12.49999999999999600, 0.0000000000000000000 ) ) ;
#75 = PERSON_AND_ORGANIZATION ( #170, #48 ) ;
#76 = LINE ( 'NONE', #61, #120 ) ;
#77 = CC_DESIGN_PERSON_AND_ORGANIZATION_ASSIGNMENT ( #185, #73, ( #130 ) ) ;
#78 = CARTESIAN_POINT ( 'NONE',  ( 12.50000000000000000, 12.49999999999999600, 2.000000000000000000 ) ) ;
#79 = CARTESIAN_POINT ( 'NONE',  ( 12.50000000000000400, -12.50000000000000500, 2.000000000000000000 ) ) ;
#80 = EDGE_CURVE ( 'NONE', #196, #83, #52, .T. ) ;
#81 = DIRECTION ( 'NONE',  ( 1.000000000000000000, 0.0000000000000000000, 0.0000000000000000000 ) ) ;
#82 = VECTOR ( 'NONE', #177, 1000.000000000000000 ) ;
#83 = VERTEX_POINT ( 'NONE', #154 ) ;
#84 = CARTESIAN_POINT ( 'NONE',  ( -12.50000000000000000, 12.49999999999999600, 2.000000000000000000 ) ) ;
#85 = EDGE_CURVE ( 'NONE', #34, #83, #215, .T. ) ;
#86 = CC_DESIGN_DATE_AND_TIME_ASSIGNMENT ( #128, #43, ( #130 ) ) ;
#87 = PERSON_AND_ORGANIZATION ( #170, #48 ) ;
#88 = ORIENTED_EDGE ( 'NONE', *, *, #67, .T. ) ;
#89 = CC_DESIGN_DATE_AND_TIME_ASSIGNMENT ( #166, #62, ( #186 ) ) ;
#90 = ORIENTED_EDGE ( 'NONE', *, *, #46, .F. ) ;
#92 =( GEOMETRIC_REPRESENTATION_CONTEXT ( 3 ) GLOBAL_UNCERTAINTY_ASSIGNED_CONTEXT ( ( #232 ) ) GLOBAL_UNIT_ASSIGNED_CONTEXT ( ( #134, #5, #39 ) ) REPRESENTATION_CONTEXT ( 'NONE', 'WORKASPACE' ) );
#91 = LOCAL_TIME ( 10, 57, 42.00000000000000000, #11 ) ;
#93 = CALENDAR_DATE ( 2017, 19, 5 ) ;
#94 = LOCAL_TIME ( 10, 57, 42.00000000000000000, #199 ) ;
#95 = ORIENTED_EDGE ( 'NONE', *, *, #158, .F. ) ;
#96 = DESIGN_CONTEXT ( 'detailed design', #8, 'design' ) ;
#97 = CC_DESIGN_PERSON_AND_ORGANIZATION_ASSIGNMENT ( #236, #176, ( #72 ) ) ;
#98 = CARTESIAN_POINT ( 'NONE',  ( 12.50000000000000000, 12.49999999999999600, 0.0000000000000000000 ) ) ;
#99 = VECTOR ( 'NONE', #206, 1000.000000000000000 ) ;
#100 = DIRECTION ( 'NONE',  ( -0.0000000000000000000, -0.0000000000000000000, -1.000000000000000000 ) ) ;
#101 = DIRECTION ( 'NONE',  ( 1.000000000000000000, 1.387778780781445700E-016, -0.0000000000000000000 ) ) ;
#102 = CARTESIAN_POINT ( 'NONE',  ( 12.50000000000000000, 12.49999999999999600, 2.000000000000000000 ) ) ;
#103 = CC_DESIGN_APPROVAL ( #3, ( #106 ) ) ;
#104 = FACE_OUTER_BOUND ( 'NONE', #126, .T. ) ;
#105 = PERSON_AND_ORGANIZATION_ROLE ( 'design_supplier' ) ;
#106 = PRODUCT_DEFINITION_FORMATION_WITH_SPECIFIED_SOURCE ( 'ANY', '', #72, .NOT_KNOWN. ) ;
#107 = CALENDAR_DATE ( 2017, 19, 5 ) ;
#108 = VECTOR ( 'NONE', #210, 1000.000000000000000 ) ;
#109 = AXIS2_PLACEMENT_3D ( 'NONE', #157, #58, #60 ) ;
#110 = PERSON_AND_ORGANIZATION ( #170, #48 ) ;
#111 = ADVANCED_BREP_SHAPE_REPRESENTATION ( 'Web Model 84488_48197', ( #155, #224 ), #92 ) ;
#112 = AXIS2_PLACEMENT_3D ( 'NONE', #118, #195, #156 ) ;
#113 = VERTEX_POINT ( 'NONE', #78 ) ;
#114 = LINE ( 'NONE', #27, #162 ) ;
#115 = LINE ( 'NONE', #79, #99 ) ;
#116 = AXIS2_PLACEMENT_3D ( 'NONE', #121, #7, #137 ) ;
#117 = ADVANCED_FACE ( 'NONE', ( #153 ), #20, .F. ) ;
#118 = CARTESIAN_POINT ( 'NONE',  ( -12.49999999999999600, -12.50000000000000500, 2.000000000000000000 ) ) ;
#119 = APPROVAL ( #145, 'UNSPECIFIED' ) ;
#120 = VECTOR ( 'NONE', #9, 1000.000000000000000 ) ;
#121 = CARTESIAN_POINT ( 'NONE',  ( -12.49999999999999600, -12.50000000000000500, 0.0000000000000000000 ) ) ;
#122 = MECHANICAL_CONTEXT ( 'NONE', #223, 'mechanical' ) ;
#123 = ADVANCED_FACE ( 'NONE', ( #104 ), #220, .T. ) ;
#124 = LOCAL_TIME ( 10, 57, 42.00000000000000000, #169 ) ;
#125 = COORDINATED_UNIVERSAL_TIME_OFFSET ( 5, 0, .BEHIND. ) ;
#126 = EDGE_LOOP ( 'NONE', ( #38, #221, #183, #167 ) ) ;
#127 = ORIENTED_EDGE ( 'NONE', *, *, #36, .T. ) ;
#128 = DATE_AND_TIME ( #218, #146 ) ;
#129 = ORIENTED_EDGE ( 'NONE', *, *, #147, .T. ) ;
#130 = PRODUCT_DEFINITION ( 'UNKNOWN', '', #106, #96 ) ;
#131 = CARTESIAN_POINT ( 'NONE',  ( -12.50000000000000000, 12.49999999999999600, 0.0000000000000000000 ) ) ;
#132 = COORDINATED_UNIVERSAL_TIME_OFFSET ( 5, 0, .BEHIND. ) ;
#133 = CARTESIAN_POINT ( 'NONE',  ( -12.50000000000000000, 12.49999999999999600, 2.000000000000000000 ) ) ;
#134 =( LENGTH_UNIT ( ) NAMED_UNIT ( * ) SI_UNIT ( .MILLI., .METRE. ) );
#135 = CARTESIAN_POINT ( 'NONE',  ( -12.50000000000000000, 12.49999999999999600, 0.0000000000000000000 ) ) ;
#136 = DIRECTION ( 'NONE',  ( 1.387778780781445700E-016, -1.000000000000000000, 0.0000000000000000000 ) ) ;
#137 = DIRECTION ( 'NONE',  ( 1.000000000000000000, 0.0000000000000000000, 0.0000000000000000000 ) ) ;
#138 = FACE_OUTER_BOUND ( 'NONE', #144, .T. ) ;
#139 = APPROVAL_STATUS ( 'not_yet_approved' ) ;
#140 = ORIENTED_EDGE ( 'NONE', *, *, #50, .F. ) ;
#141 = DIRECTION ( 'NONE',  ( -1.000000000000000000, -0.0000000000000000000, -0.0000000000000000000 ) ) ;
#142 = CARTESIAN_POINT ( 'NONE',  ( -12.49999999999999600, -12.50000000000000500, 2.000000000000000000 ) ) ;
#143 = AXIS2_PLACEMENT_3D ( 'NONE', #209, #101, #160 ) ;
#144 = EDGE_LOOP ( 'NONE', ( #129, #31, #16, #71 ) ) ;
#145 = APPROVAL_STATUS ( 'not_yet_approved' ) ;
#146 = LOCAL_TIME ( 10, 57, 42.00000000000000000, #132 ) ;
#147 = EDGE_CURVE ( 'NONE', #165, #196, #47, .T. ) ;
#148 = ORIENTED_EDGE ( 'NONE', *, *, #187, .T. ) ;
#149 = PERSON_AND_ORGANIZATION ( #170, #48 ) ;
#150 = VERTEX_POINT ( 'NONE', #53 ) ;
#151 = CC_DESIGN_PERSON_AND_ORGANIZATION_ASSIGNMENT ( #70, #161, ( #186 ) ) ;
#152 = VECTOR ( 'NONE', #59, 1000.000000000000000 ) ;
#153 = FACE_OUTER_BOUND ( 'NONE', #191, .T. ) ;
#154 = CARTESIAN_POINT ( 'NONE',  ( -12.49999999999999600, -12.50000000000000500, 0.0000000000000000000 ) ) ;
#155 = MANIFOLD_SOLID_BREP ( 'Extrude1', #69 ) ;
#156 = DIRECTION ( 'NONE',  ( 1.000000000000000000, 0.0000000000000000000, 0.0000000000000000000 ) ) ;
#157 = CARTESIAN_POINT ( 'NONE',  ( -12.49999999999999600, -12.50000000000000500, 2.000000000000000000 ) ) ;
#158 = EDGE_CURVE ( 'NONE', #34, #237, #171, .T. ) ;
#159 = APPROVAL_ROLE ( '' ) ;
#160 = DIRECTION ( 'NONE',  ( -1.387778780781445700E-016, 1.000000000000000000, 0.0000000000000000000 ) ) ;
#161 = PERSON_AND_ORGANIZATION_ROLE ( 'classification_officer' ) ;
#162 = VECTOR ( 'NONE', #194, 1000.000000000000000 ) ;
#163 = LINE ( 'NONE', #102, #66 ) ;
#164 = VECTOR ( 'NONE', #141, 1000.000000000000000 ) ;
#165 = VERTEX_POINT ( 'NONE', #98 ) ;
#166 = DATE_AND_TIME ( #208, #124 ) ;
#167 = ORIENTED_EDGE ( 'NONE', *, *, #10, .T. ) ;
#168 = AXIS2_PLACEMENT_3D ( 'NONE', #133, #57, #217 ) ;
#169 = COORDINATED_UNIVERSAL_TIME_OFFSET ( 5, 0, .BEHIND. ) ;
#170 = PERSON ( 'UNSPECIFIED', 'UNSPECIFIED', 'UNSPECIFIED', ('UNSPECIFIED'), ('UNSPECIFIED'), ('UNSPECIFIED') ) ;
#171 = LINE ( 'NONE', #193, #82 ) ;
#172 = VECTOR ( 'NONE', #24, 1000.000000000000000 ) ;
#173 = PRODUCT_RELATED_PRODUCT_CATEGORY ( 'detail', '', ( #72 ) ) ;
#174 = APPLICATION_PROTOCOL_DEFINITION ( 'international standard', 'config_control_design', 1994, #223 ) ;
#175 = APPROVAL_PERSON_ORGANIZATION ( #75, #3, #188 ) ;
#176 = PERSON_AND_ORGANIZATION_ROLE ( 'design_owner' ) ;
#177 = DIRECTION ( 'NONE',  ( 1.000000000000000000, 0.0000000000000000000, 0.0000000000000000000 ) ) ;
#178 = PLANE ( 'NONE',  #109 ) ;
#179 = PLANE ( 'NONE',  #168 ) ;
#180 = CARTESIAN_POINT ( 'NONE',  ( 12.50000000000000000, 12.49999999999999600, 0.0000000000000000000 ) ) ;
#181 = APPROVAL_STATUS ( 'not_yet_approved' ) ;
#182 = ORIENTED_EDGE ( 'NONE', *, *, #85, .T. ) ;
#183 = ORIENTED_EDGE ( 'NONE', *, *, #50, .T. ) ;
#184 = AXIS2_PLACEMENT_3D ( 'NONE', #207, #4, #136 ) ;
#185 = PERSON_AND_ORGANIZATION ( #170, #48 ) ;
#186 = SECURITY_CLASSIFICATION ( '', '', #65 ) ;
#187 = EDGE_CURVE ( 'NONE', #150, #196, #219, .T. ) ;
#188 = APPROVAL_ROLE ( '' ) ;
#189 = APPROVAL_PERSON_ORGANIZATION ( #149, #14, #159 ) ;
#190 = LINE ( 'NONE', #25, #108 ) ;
#191 = EDGE_LOOP ( 'NONE', ( #88, #90, #140, #1 ) ) ;
#192 = CARTESIAN_POINT ( 'NONE',  ( 0.0000000000000000000, 0.0000000000000000000, 0.0000000000000000000 ) ) ;
#193 = CARTESIAN_POINT ( 'NONE',  ( -12.49999999999999600, -12.50000000000000500, 2.000000000000000000 ) ) ;
#194 = DIRECTION ( 'NONE',  ( 1.387778780781445700E-016, -1.000000000000000000, 0.0000000000000000000 ) ) ;
#195 = DIRECTION ( 'NONE',  ( -0.0000000000000000000, 0.0000000000000000000, 1.000000000000000000 ) ) ;
#196 = VERTEX_POINT ( 'NONE', #131 ) ;
#197 = CARTESIAN_POINT ( 'NONE',  ( -12.49999999999999600, -12.50000000000000500, 2.000000000000000000 ) ) ;
#198 = APPROVAL_ROLE ( '' ) ;
#199 = COORDINATED_UNIVERSAL_TIME_OFFSET ( 5, 0, .BEHIND. ) ;
#200 = APPROVAL_PERSON_ORGANIZATION ( #110, #119, #198 ) ;
#201 = ORIENTED_EDGE ( 'NONE', *, *, #67, .F. ) ;
#202 = DATE_AND_TIME ( #107, #91 ) ;
#203 = VECTOR ( 'NONE', #44, 1000.000000000000000 ) ;
#204 = FACE_OUTER_BOUND ( 'NONE', #56, .T. ) ;
#205 = PERSON_AND_ORGANIZATION_ROLE ( 'creator' ) ;
#206 = DIRECTION ( 'NONE',  ( -0.0000000000000000000, -0.0000000000000000000, -1.000000000000000000 ) ) ;
#207 = CARTESIAN_POINT ( 'NONE',  ( 12.50000000000000000, 12.49999999999999600, 2.000000000000000000 ) ) ;
#208 = CALENDAR_DATE ( 2017, 19, 5 ) ;
#209 = CARTESIAN_POINT ( 'NONE',  ( -12.50000000000000000, 12.49999999999999600, 2.000000000000000000 ) ) ;
#210 = DIRECTION ( 'NONE',  ( 1.000000000000000000, 0.0000000000000000000, 0.0000000000000000000 ) ) ;
#211 = LINE ( 'NONE', #84, #164 ) ;
#212 = CC_DESIGN_APPROVAL ( #14, ( #130 ) ) ;
#213 = CC_DESIGN_SECURITY_CLASSIFICATION ( #186, ( #106 ) ) ;
#214 = PRODUCT_DEFINITION_SHAPE ( 'NONE', 'NONE',  #130 ) ;
#215 = LINE ( 'NONE', #142, #172 ) ;
#216 = CC_DESIGN_PERSON_AND_ORGANIZATION_ASSIGNMENT ( #87, #205, ( #106 ) ) ;
#217 = DIRECTION ( 'NONE',  ( 0.0000000000000000000, -0.0000000000000000000, -1.000000000000000000 ) ) ;
#218 = CALENDAR_DATE ( 2017, 19, 5 ) ;
#219 = LINE ( 'NONE', #21, #49 ) ;
#220 = PLANE ( 'NONE',  #112 ) ;
#221 = ORIENTED_EDGE ( 'NONE', *, *, #158, .T. ) ;
#222 = PLANE ( 'NONE',  #116 ) ;
#223 = APPLICATION_CONTEXT ( 'configuration controlled 3d designs of mechanical parts and assemblies' ) ;
#224 = AXIS2_PLACEMENT_3D ( 'NONE', #192, #40, #81 ) ;
#225 = CARTESIAN_POINT ( 'NONE',  ( 12.50000000000000400, -12.50000000000000500, 0.0000000000000000000 ) ) ;
#226 = EDGE_CURVE ( 'NONE', #150, #34, #114, .T. ) ;
#227 = APPROVAL_DATE_TIME ( #45, #14 ) ;
#228 = CC_DESIGN_APPROVAL ( #119, ( #186 ) ) ;
#229 = APPROVAL_DATE_TIME ( #41, #3 ) ;
#230 = ORIENTED_EDGE ( 'NONE', *, *, #85, .F. ) ;
#231 = ORIENTED_EDGE ( 'NONE', *, *, #68, .F. ) ;
#232 = UNCERTAINTY_MEASURE_WITH_UNIT (LENGTH_MEASURE( 1.000000000000000100E-005 ), #134, 'distance_accuracy_value', 'NONE');
#233 = VECTOR ( 'NONE', #54, 1000.000000000000000 ) ;
#234 = ORIENTED_EDGE ( 'NONE', *, *, #226, .F. ) ;
#235 = ADVANCED_FACE ( 'NONE', ( #138 ), #179, .F. ) ;
#236 = PERSON_AND_ORGANIZATION ( #170, #48 ) ;
#237 = VERTEX_POINT ( 'NONE', #2 ) ;
ENDSEC;
END-ISO-10303-21;
