ISO-10303-21;
HEADER;
FILE_DESCRIPTION (( 'STEP AP203' ),
    '1' );
FILE_NAME ('Web Model 17201_17203.step',
    '2021-04-14T20:41:56',
    ( '' ),
    ( '' ),
    'SwSTEP 2.0',
    'SolidWorks 2018',
    '' );
FILE_SCHEMA (( 'CONFIG_CONTROL_DESIGN' ));
ENDSEC;

DATA;
#1 = VECTOR ( 'NONE', #53, 1000.000000000000000 ) ;
#2 = PRODUCT_DEFINITION_SHAPE ( 'NONE', 'NONE',  #112 ) ;
#3 = SHAPE_DEFINITION_REPRESENTATION ( #2, #123 ) ;
#4 = CALENDAR_DATE ( 2021, 14, 4 ) ;
#5 = CARTESIAN_POINT ( 'NONE',  ( 0.000000000000000000, 0.000000000000000000, 0.000000000000000000 ) ) ;
#6 = PRODUCT_RELATED_PRODUCT_CATEGORY ( 'detail', '', ( #60 ) ) ;
#7 = CALENDAR_DATE ( 2021, 14, 4 ) ;
#8 = ORIENTED_EDGE ( 'NONE', *, *, #130, .T. ) ;
#9 = DIRECTION ( 'NONE',  ( -0.000000000000000000, -0.000000000000000000, -1.000000000000000000 ) ) ;
#10 = APPROVAL_DATE_TIME ( #62, #108 ) ;
#11 = ORIENTED_EDGE ( 'NONE', *, *, #130, .F. ) ;
#12 = DATE_AND_TIME ( #42, #71 ) ;
#13 = ADVANCED_FACE ( 'NONE', ( #175 ), #162, .F. ) ;
#14 = AXIS2_PLACEMENT_3D ( 'NONE', #29, #117, #45 ) ;
#15 = CIRCLE ( 'NONE', #133, 25.00000000000000000 ) ;
#16 = CARTESIAN_POINT ( 'NONE',  ( 25.00000000000000000, 3.061616997868383043E-15, 3.000000000000000000 ) ) ;
#17 = CC_DESIGN_APPROVAL ( #164, ( #24 ) ) ;
#18 = CARTESIAN_POINT ( 'NONE',  ( -25.00000000000000000, 0.000000000000000000, 3.000000000000000000 ) ) ;
#19 = CC_DESIGN_PERSON_AND_ORGANIZATION_ASSIGNMENT ( #143, #55, ( #60 ) ) ;
#20 =( LENGTH_UNIT ( ) NAMED_UNIT ( * ) SI_UNIT ( .MILLI., .METRE. ) );
#21 = DIRECTION ( 'NONE',  ( -1.000000000000000000, 0.000000000000000000, 0.000000000000000000 ) ) ;
#22 = AXIS2_PLACEMENT_3D ( 'NONE', #67, #165, #149 ) ;
#23 = DIRECTION ( 'NONE',  ( 1.000000000000000000, 0.000000000000000000, 0.000000000000000000 ) ) ;
#24 = SECURITY_CLASSIFICATION ( '', '', #169 ) ;
#25 = PERSON_AND_ORGANIZATION ( #37, #113 ) ;
#26 = ORIENTED_EDGE ( 'NONE', *, *, #140, .T. ) ;
#27 = AXIS2_PLACEMENT_3D ( 'NONE', #102, #82, #44 ) ;
#28 = DIRECTION ( 'NONE',  ( 0.000000000000000000, 0.000000000000000000, 1.000000000000000000 ) ) ;
#29 = CARTESIAN_POINT ( 'NONE',  ( 0.000000000000000000, 0.000000000000000000, 3.000000000000000000 ) ) ;
#30 = CC_DESIGN_APPROVAL ( #128, ( #112 ) ) ;
#31 = DIRECTION ( 'NONE',  ( -0.000000000000000000, -0.000000000000000000, -1.000000000000000000 ) ) ;
#32 = PERSON_AND_ORGANIZATION_ROLE ( 'classification_officer' ) ;
#33 = PERSON_AND_ORGANIZATION ( #37, #113 ) ;
#34 = ORIENTED_EDGE ( 'NONE', *, *, #96, .T. ) ;
#35 = PERSON_AND_ORGANIZATION ( #37, #113 ) ;
#36 = ORIENTED_EDGE ( 'NONE', *, *, #114, .F. ) ;
#37 = PERSON ( 'UNSPECIFIED', 'UNSPECIFIED', 'UNSPECIFIED', ('UNSPECIFIED'), ('UNSPECIFIED'), ('UNSPECIFIED') ) ;
#38 = DATE_AND_TIME ( #77, #90 ) ;
#39 = LINE ( 'NONE', #127, #1 ) ;
#40 = APPROVAL_PERSON_ORGANIZATION ( #137, #164, #172 ) ;
#41 = CALENDAR_DATE ( 2021, 14, 4 ) ;
#42 = CALENDAR_DATE ( 2021, 14, 4 ) ;
#43 = CC_DESIGN_PERSON_AND_ORGANIZATION_ASSIGNMENT ( #33, #72, ( #116 ) ) ;
#44 = DIRECTION ( 'NONE',  ( -1.000000000000000000, 0.000000000000000000, 0.000000000000000000 ) ) ;
#45 = DIRECTION ( 'NONE',  ( 1.000000000000000000, 0.000000000000000000, 0.000000000000000000 ) ) ;
#46 = EDGE_LOOP ( 'NONE', ( #36, #26, #34, #78 ) ) ;
#47 = DIRECTION ( 'NONE',  ( 1.000000000000000000, 0.000000000000000000, 0.000000000000000000 ) ) ;
#48 = CARTESIAN_POINT ( 'NONE',  ( 0.000000000000000000, 0.000000000000000000, 0.000000000000000000 ) ) ;
#49 = PERSON_AND_ORGANIZATION ( #37, #113 ) ;
#50 = EDGE_LOOP ( 'NONE', ( #52, #174 ) ) ;
#51 = APPROVAL_ROLE ( '' ) ;
#52 = ORIENTED_EDGE ( 'NONE', *, *, #88, .F. ) ;
#53 = DIRECTION ( 'NONE',  ( -0.000000000000000000, -0.000000000000000000, -1.000000000000000000 ) ) ;
#54 = COORDINATED_UNIVERSAL_TIME_OFFSET ( 5, 0, .BEHIND. ) ;
#55 = PERSON_AND_ORGANIZATION_ROLE ( 'design_owner' ) ;
#56 = APPLICATION_PROTOCOL_DEFINITION ( 'international standard', 'config_control_design', 1994, #155 ) ;
#57 = CARTESIAN_POINT ( 'NONE',  ( 0.000000000000000000, 0.000000000000000000, 3.000000000000000000 ) ) ;
#58 = APPROVAL_STATUS ( 'not_yet_approved' ) ;
#59 = ORIENTED_EDGE ( 'NONE', *, *, #88, .T. ) ;
#60 = PRODUCT ( 'Web Model 17201_17203', 'Web Model 17201_17203', '', ( #129 ) ) ;
#61 = CC_DESIGN_PERSON_AND_ORGANIZATION_ASSIGNMENT ( #135, #83, ( #116 ) ) ;
#62 = DATE_AND_TIME ( #41, #98 ) ;
#63 = DIRECTION ( 'NONE',  ( 0.000000000000000000, 0.000000000000000000, 1.000000000000000000 ) ) ;
#64 = DIRECTION ( 'NONE',  ( 1.000000000000000000, 0.000000000000000000, 0.000000000000000000 ) ) ;
#65 = DATE_AND_TIME ( #7, #73 ) ;
#66 = EDGE_LOOP ( 'NONE', ( #125, #11, #87, #59 ) ) ;
#67 = CARTESIAN_POINT ( 'NONE',  ( 0.000000000000000000, 0.000000000000000000, 3.000000000000000000 ) ) ;
#68 = PERSON_AND_ORGANIZATION_ROLE ( 'creator' ) ;
#69 = DIRECTION ( 'NONE',  ( 0.000000000000000000, 0.000000000000000000, 1.000000000000000000 ) ) ;
#70 = FACE_OUTER_BOUND ( 'NONE', #46, .T. ) ;
#71 = LOCAL_TIME ( 16, 41, 56.00000000000000000, #101 ) ;
#72 = PERSON_AND_ORGANIZATION_ROLE ( 'design_supplier' ) ;
#73 = LOCAL_TIME ( 16, 41, 56.00000000000000000, #103 ) ;
#74 = COORDINATED_UNIVERSAL_TIME_OFFSET ( 5, 0, .BEHIND. ) ;
#75 = DATE_AND_TIME ( #4, #131 ) ;
#76 = VERTEX_POINT ( 'NONE', #119 ) ;
#77 = CALENDAR_DATE ( 2021, 14, 4 ) ;
#78 = ORIENTED_EDGE ( 'NONE', *, *, #115, .F. ) ;
#79 = APPROVAL_DATE_TIME ( #12, #164 ) ;
#80 = CARTESIAN_POINT ( 'NONE',  ( 25.00000000000000000, 3.061616997868383043E-15, 0.000000000000000000 ) ) ;
#81 = VERTEX_POINT ( 'NONE', #80 ) ;
#82 = DIRECTION ( 'NONE',  ( -0.000000000000000000, -0.000000000000000000, -1.000000000000000000 ) ) ;
#83 = PERSON_AND_ORGANIZATION_ROLE ( 'creator' ) ;
#84 = DIRECTION ( 'NONE',  ( 0.000000000000000000, 0.000000000000000000, 1.000000000000000000 ) ) ;
#85 = DATE_TIME_ROLE ( 'creation_date' ) ;
#86 = APPROVAL_STATUS ( 'not_yet_approved' ) ;
#87 = ORIENTED_EDGE ( 'NONE', *, *, #115, .T. ) ;
#88 = EDGE_CURVE ( 'NONE', #76, #81, #167, .T. ) ;
#89 = FACE_OUTER_BOUND ( 'NONE', #132, .T. ) ;
#90 = LOCAL_TIME ( 16, 41, 56.00000000000000000, #166 ) ;
#91 = LINE ( 'NONE', #18, #142 ) ;
#92 = CARTESIAN_POINT ( 'NONE',  ( -25.00000000000000000, 0.000000000000000000, 3.000000000000000000 ) ) ;
#93 = DIRECTION ( 'NONE',  ( 1.000000000000000000, 0.000000000000000000, -0.000000000000000000 ) ) ;
#94 = APPROVAL_DATE_TIME ( #65, #128 ) ;
#95 = VERTEX_POINT ( 'NONE', #92 ) ;
#96 = EDGE_CURVE ( 'NONE', #81, #76, #15, .T. ) ;
#97 =( NAMED_UNIT ( * ) PLANE_ANGLE_UNIT ( ) SI_UNIT ( $, .RADIAN. ) );
#98 = LOCAL_TIME ( 16, 41, 56.00000000000000000, #74 ) ;
#99 = PERSON_AND_ORGANIZATION ( #37, #113 ) ;
#100 = CIRCLE ( 'NONE', #14, 25.00000000000000000 ) ;
#101 = COORDINATED_UNIVERSAL_TIME_OFFSET ( 5, 0, .BEHIND. ) ;
#102 = CARTESIAN_POINT ( 'NONE',  ( 0.000000000000000000, 0.000000000000000000, 3.000000000000000000 ) ) ;
#103 = COORDINATED_UNIVERSAL_TIME_OFFSET ( 5, 0, .BEHIND. ) ;
#104 = APPLICATION_CONTEXT ( 'configuration controlled 3d designs of mechanical parts and assemblies' ) ;
#105 = APPROVAL_ROLE ( '' ) ;
#106 = VERTEX_POINT ( 'NONE', #16 ) ;
#107 = DIRECTION ( 'NONE',  ( 1.000000000000000000, 0.000000000000000000, -0.000000000000000000 ) ) ;
#108 = APPROVAL ( #58, 'UNSPECIFIED' ) ;
#109 = APPROVAL_PERSON_ORGANIZATION ( #35, #128, #105 ) ;
#110 = ADVANCED_FACE ( 'NONE', ( #70 ), #160, .T. ) ;
#111 = AXIS2_PLACEMENT_3D ( 'NONE', #145, #28, #64 ) ;
#112 = PRODUCT_DEFINITION ( 'UNKNOWN', '', #116, #144 ) ;
#113 = ORGANIZATION ( 'UNSPECIFIED', 'UNSPECIFIED', '' ) ;
#114 = EDGE_CURVE ( 'NONE', #106, #95, #100, .T. ) ;
#115 = EDGE_CURVE ( 'NONE', #95, #76, #91, .T. ) ;
#116 = PRODUCT_DEFINITION_FORMATION_WITH_SPECIFIED_SOURCE ( 'ANY', '', #60, .NOT_KNOWN. ) ;
#117 = DIRECTION ( 'NONE',  ( 0.000000000000000000, 0.000000000000000000, 1.000000000000000000 ) ) ;
#118 = AXIS2_PLACEMENT_3D ( 'NONE', #57, #69, #107 ) ;
#119 = CARTESIAN_POINT ( 'NONE',  ( -25.00000000000000000, 0.000000000000000000, 0.000000000000000000 ) ) ;
#120 =( NAMED_UNIT ( * ) SI_UNIT ( $, .STERADIAN. ) SOLID_ANGLE_UNIT ( ) );
#121 = AXIS2_PLACEMENT_3D ( 'NONE', #150, #31, #21 ) ;
#122 = APPROVAL_STATUS ( 'not_yet_approved' ) ;
#123 = ADVANCED_BREP_SHAPE_REPRESENTATION ( 'Web Model 17201_17203', ( #159, #126 ), #138 ) ;
#124 = CIRCLE ( 'NONE', #22, 25.00000000000000000 ) ;
#125 = ORIENTED_EDGE ( 'NONE', *, *, #140, .F. ) ;
#126 = AXIS2_PLACEMENT_3D ( 'NONE', #48, #84, #23 ) ;
#127 = CARTESIAN_POINT ( 'NONE',  ( 25.00000000000000000, 3.061616997868383043E-15, 3.000000000000000000 ) ) ;
#128 = APPROVAL ( #122, 'UNSPECIFIED' ) ;
#129 = MECHANICAL_CONTEXT ( 'NONE', #104, 'mechanical' ) ;
#130 = EDGE_CURVE ( 'NONE', #95, #106, #124, .T. ) ;
#131 = LOCAL_TIME ( 16, 41, 56.00000000000000000, #54 ) ;
#132 = EDGE_LOOP ( 'NONE', ( #8, #158 ) ) ;
#133 = AXIS2_PLACEMENT_3D ( 'NONE', #163, #161, #47 ) ;
#134 = CC_DESIGN_DATE_AND_TIME_ASSIGNMENT ( #38, #85, ( #112 ) ) ;
#135 = PERSON_AND_ORGANIZATION ( #37, #113 ) ;
#136 = CLOSED_SHELL ( 'NONE', ( #110, #170, #152, #13 ) ) ;
#137 = PERSON_AND_ORGANIZATION ( #37, #113 ) ;
#138 =( GEOMETRIC_REPRESENTATION_CONTEXT ( 3 ) GLOBAL_UNCERTAINTY_ASSIGNED_CONTEXT ( ( #154 ) ) GLOBAL_UNIT_ASSIGNED_CONTEXT ( ( #20, #97, #120 ) ) REPRESENTATION_CONTEXT ( 'NONE', 'WORKASPACE' ) );
#139 = CC_DESIGN_APPROVAL ( #108, ( #116 ) ) ;
#140 = EDGE_CURVE ( 'NONE', #106, #81, #39, .T. ) ;
#141 = APPROVAL_PERSON_ORGANIZATION ( #49, #108, #51 ) ;
#142 = VECTOR ( 'NONE', #9, 1000.000000000000000 ) ;
#143 = PERSON_AND_ORGANIZATION ( #37, #113 ) ;
#144 = DESIGN_CONTEXT ( 'detailed design', #155, 'design' ) ;
#145 = CARTESIAN_POINT ( 'NONE',  ( 0.000000000000000000, 0.000000000000000000, 0.000000000000000000 ) ) ;
#146 = PLANE ( 'NONE',  #118 ) ;
#147 = CC_DESIGN_PERSON_AND_ORGANIZATION_ASSIGNMENT ( #99, #32, ( #24 ) ) ;
#148 = FACE_OUTER_BOUND ( 'NONE', #66, .T. ) ;
#149 = DIRECTION ( 'NONE',  ( 1.000000000000000000, 0.000000000000000000, 0.000000000000000000 ) ) ;
#150 = CARTESIAN_POINT ( 'NONE',  ( 0.000000000000000000, 0.000000000000000000, 3.000000000000000000 ) ) ;
#151 = CC_DESIGN_SECURITY_CLASSIFICATION ( #24, ( #116 ) ) ;
#152 = ADVANCED_FACE ( 'NONE', ( #89 ), #146, .T. ) ;
#153 = APPLICATION_PROTOCOL_DEFINITION ( 'international standard', 'config_control_design', 1994, #104 ) ;
#154 = UNCERTAINTY_MEASURE_WITH_UNIT (LENGTH_MEASURE( 1.000000000000000082E-05 ), #20, 'distance_accuracy_value', 'NONE');
#155 = APPLICATION_CONTEXT ( 'configuration controlled 3d designs of mechanical parts and assemblies' ) ;
#156 = AXIS2_PLACEMENT_3D ( 'NONE', #5, #63, #93 ) ;
#157 = CC_DESIGN_DATE_AND_TIME_ASSIGNMENT ( #75, #168, ( #24 ) ) ;
#158 = ORIENTED_EDGE ( 'NONE', *, *, #114, .T. ) ;
#159 = MANIFOLD_SOLID_BREP ( 'Boss-Extrude1', #136 ) ;
#160 = CYLINDRICAL_SURFACE ( 'NONE', #27, 25.00000000000000000 ) ;
#161 = DIRECTION ( 'NONE',  ( 0.000000000000000000, 0.000000000000000000, 1.000000000000000000 ) ) ;
#162 = PLANE ( 'NONE',  #156 ) ;
#163 = CARTESIAN_POINT ( 'NONE',  ( 0.000000000000000000, 0.000000000000000000, 0.000000000000000000 ) ) ;
#164 = APPROVAL ( #86, 'UNSPECIFIED' ) ;
#165 = DIRECTION ( 'NONE',  ( 0.000000000000000000, 0.000000000000000000, 1.000000000000000000 ) ) ;
#166 = COORDINATED_UNIVERSAL_TIME_OFFSET ( 5, 0, .BEHIND. ) ;
#167 = CIRCLE ( 'NONE', #111, 25.00000000000000000 ) ;
#168 = DATE_TIME_ROLE ( 'classification_date' ) ;
#169 = SECURITY_CLASSIFICATION_LEVEL ( 'unclassified' ) ;
#170 = ADVANCED_FACE ( 'NONE', ( #148 ), #171, .T. ) ;
#171 = CYLINDRICAL_SURFACE ( 'NONE', #121, 25.00000000000000000 ) ;
#172 = APPROVAL_ROLE ( '' ) ;
#173 = CC_DESIGN_PERSON_AND_ORGANIZATION_ASSIGNMENT ( #25, #68, ( #112 ) ) ;
#174 = ORIENTED_EDGE ( 'NONE', *, *, #96, .F. ) ;
#175 = FACE_OUTER_BOUND ( 'NONE', #50, .T. ) ;
ENDSEC;
END-ISO-10303-21;
