ISO-10303-21;
HEADER;
FILE_DESCRIPTION (( 'STEP AP203' ),
    '1' );
FILE_NAME ('5441-E0W.STEP',
    '2015-02-24T16:46:07',
    ( 'Admin' ),
    ( '' ),
    'SwSTEP 2.0',
    'SolidWorks 2014',
    '' );
FILE_SCHEMA (( 'CONFIG_CONTROL_DESIGN' ));
ENDSEC;

DATA;
#1 = EDGE_LOOP ( 'NONE', ( #25, #147, #86, #51 ) ) ;
#2 = ORIENTED_EDGE ( 'NONE', *, *, #174, .F. ) ;
#3 = SPHERICAL_SURFACE ( 'NONE', #7, 9.339999999999998100 ) ;
#4 = DIRECTION ( 'NONE',  ( -0.0000000000000000000, -0.0000000000000000000, 1.000000000000000000 ) ) ;
#5 = ORIENTED_EDGE ( 'NONE', *, *, #154, .T. ) ;
#6 = PERSON_AND_ORGANIZATION ( #87, #68 ) ;
#7 = AXIS2_PLACEMENT_3D ( 'NONE', #182, #33, #187 ) ;
#8 = CARTESIAN_POINT ( 'NONE',  ( 0.0000000000000000000, 0.0000000000000000000, 1.494910967095921100 ) ) ;
#9 = PERSON_AND_ORGANIZATION ( #87, #68 ) ;
#10 = LOCAL_TIME ( 11, 46, 7.000000000000000000, #145 ) ;
#11 = CIRCLE ( 'NONE', #199, 2.999999999999999100 ) ;
#12 = CARTESIAN_POINT ( 'NONE',  ( 0.0000000000000000000, 0.0000000000000000000, 1.494910967095921100 ) ) ;
#13 = AXIS2_PLACEMENT_3D ( 'NONE', #161, #118, #19 ) ;
#14 = DIRECTION ( 'NONE',  ( 1.000000000000000000, 0.0000000000000000000, 0.0000000000000000000 ) ) ;
#15 = CIRCLE ( 'NONE', #128, 9.339999999999998100 ) ;
#16 = APPROVAL_ROLE ( '' ) ;
#17 = EDGE_CURVE ( 'NONE', #168, #155, #29, .T. ) ;
#18 = APPROVAL ( #34, 'UNSPECIFIED' ) ;
#19 = DIRECTION ( 'NONE',  ( 1.000000000000000000, 0.0000000000000000000, 0.0000000000000000000 ) ) ;
#20 = DIRECTION ( 'NONE',  ( -1.224646799147353000E-016, -1.000000000000000000, 0.0000000000000000000 ) ) ;
#21 = APPROVAL_STATUS ( 'not_yet_approved' ) ;
#22 = EDGE_LOOP ( 'NONE', ( #115, #178 ) ) ;
#23 = APPROVAL_STATUS ( 'not_yet_approved' ) ;
#24 = DIRECTION ( 'NONE',  ( -0.0000000000000000000, -0.0000000000000000000, 1.000000000000000000 ) ) ;
#25 = ORIENTED_EDGE ( 'NONE', *, *, #206, .F. ) ;
#26 = DIRECTION ( 'NONE',  ( -1.000000000000000000, 0.0000000000000000000, 0.0000000000000000000 ) ) ;
#27 = PRODUCT_DEFINITION ( 'UNKNOWN', '', #107, #40 ) ;
#28 = DIRECTION ( 'NONE',  ( -0.0000000000000000000, -0.0000000000000000000, 1.000000000000000000 ) ) ;
#29 = CIRCLE ( 'NONE', #93, 2.999999999999999100 ) ;
#30 = EDGE_CURVE ( 'NONE', #168, #185, #71, .T. ) ;
#31 = ADVANCED_FACE ( 'NONE', ( #82 ), #123, .F. ) ;
#32 = PLANE ( 'NONE',  #176 ) ;
#33 = DIRECTION ( 'NONE',  ( -1.000000000000000000, 0.0000000000000000000, 0.0000000000000000000 ) ) ;
#34 = APPROVAL_STATUS ( 'not_yet_approved' ) ;
#35 = EDGE_LOOP ( 'NONE', ( #197, #175, #141, #61 ) ) ;
#36 = CARTESIAN_POINT ( 'NONE',  ( 0.0000000000000000000, 0.0000000000000000000, 10.33999999999999800 ) ) ;
#37 = DATE_AND_TIME ( #126, #221 ) ;
#38 = AXIS2_PLACEMENT_3D ( 'NONE', #108, #41, #14 ) ;
#39 = DIRECTION ( 'NONE',  ( 0.0000000000000000000, 0.0000000000000000000, -1.000000000000000000 ) ) ;
#40 = DESIGN_CONTEXT ( 'detailed design', #116, 'design' ) ;
#41 = DIRECTION ( 'NONE',  ( 0.0000000000000000000, 0.0000000000000000000, 1.000000000000000000 ) ) ;
#42 = ORIENTED_EDGE ( 'NONE', *, *, #60, .F. ) ;
#43 = CARTESIAN_POINT ( 'NONE',  ( 2.999999999999999100, 0.0000000000000000000, 1.494910967095921100 ) ) ;
#44 = ORIENTED_EDGE ( 'NONE', *, *, #211, .T. ) ;
#45 = DIRECTION ( 'NONE',  ( 0.0000000000000000000, 1.000000000000000000, 0.0000000000000000000 ) ) ;
#46 = LOCAL_TIME ( 11, 46, 7.000000000000000000, #166 ) ;
#47 = DIRECTION ( 'NONE',  ( 1.000000000000000000, 0.0000000000000000000, 0.0000000000000000000 ) ) ;
#48 =( GEOMETRIC_REPRESENTATION_CONTEXT ( 3 ) GLOBAL_UNCERTAINTY_ASSIGNED_CONTEXT ( ( #195 ) ) GLOBAL_UNIT_ASSIGNED_CONTEXT ( ( #193, #105, #65 ) ) REPRESENTATION_CONTEXT ( 'NONE', 'WORKASPACE' ) );
#49 = CARTESIAN_POINT ( 'NONE',  ( -3.673940397442056400E-016, -2.999999999999997300, 1.494910967095921100 ) ) ;
#50 = PERSON_AND_ORGANIZATION ( #87, #68 ) ;
#51 = ORIENTED_EDGE ( 'NONE', *, *, #117, .T. ) ;
#52 = DIRECTION ( 'NONE',  ( 1.000000000000000000, 0.0000000000000000000, 0.0000000000000000000 ) ) ;
#53 = PERSON_AND_ORGANIZATION_ROLE ( 'creator' ) ;
#54 = MANIFOLD_SOLID_BREP ( '5441-001-1-solid1', #101 ) ;
#55 = DATE_AND_TIME ( #173, #46 ) ;
#56 = APPLICATION_CONTEXT ( 'configuration controlled 3d designs of mechanical parts and assemblies' ) ;
#57 = LOCAL_TIME ( 11, 46, 7.000000000000000000, #80 ) ;
#58 = CARTESIAN_POINT ( 'NONE',  ( 0.0000000000000000000, 0.0000000000000000000, 1.494910967095921100 ) ) ;
#59 = PERSON_AND_ORGANIZATION ( #87, #68 ) ;
#60 = EDGE_CURVE ( 'NONE', #159, #148, #64, .T. ) ;
#61 = ORIENTED_EDGE ( 'NONE', *, *, #60, .T. ) ;
#62 = APPROVAL ( #21, 'UNSPECIFIED' ) ;
#63 = EDGE_CURVE ( 'NONE', #122, #148, #15, .T. ) ;
#64 = CIRCLE ( 'NONE', #119, 2.999999999999999100 ) ;
#65 =( NAMED_UNIT ( * ) SI_UNIT ( $, .STERADIAN. ) SOLID_ANGLE_UNIT ( ) );
#66 = CC_DESIGN_PERSON_AND_ORGANIZATION_ASSIGNMENT ( #103, #125, ( #107 ) ) ;
#67 = SHAPE_DEFINITION_REPRESENTATION ( #78, #201 ) ;
#68 = ORGANIZATION ( 'UNSPECIFIED', 'UNSPECIFIED', '' ) ;
#69 = DIRECTION ( 'NONE',  ( 1.000000000000000000, 0.0000000000000000000, 0.0000000000000000000 ) ) ;
#70 = ORIENTED_EDGE ( 'NONE', *, *, #17, .T. ) ;
#71 = LINE ( 'NONE', #172, #110 ) ;
#72 = LINE ( 'NONE', #94, #194 ) ;
#73 = APPROVAL_PERSON_ORGANIZATION ( #6, #132, #130 ) ;
#74 = SECURITY_CLASSIFICATION_LEVEL ( 'unclassified' ) ;
#75 = ORIENTED_EDGE ( 'NONE', *, *, #170, .F. ) ;
#76 = AXIS2_PLACEMENT_3D ( 'NONE', #207, #4, #184 ) ;
#77 = DIRECTION ( 'NONE',  ( -0.0000000000000000000, -0.0000000000000000000, 1.000000000000000000 ) ) ;
#78 = PRODUCT_DEFINITION_SHAPE ( 'NONE', 'NONE',  #27 ) ;
#79 = APPROVAL_DATE_TIME ( #37, #62 ) ;
#80 = COORDINATED_UNIVERSAL_TIME_OFFSET ( 5, 0, .BEHIND. ) ;
#81 = LOCAL_TIME ( 11, 46, 7.000000000000000000, #95 ) ;
#82 = FACE_OUTER_BOUND ( 'NONE', #35, .T. ) ;
#83 = DIRECTION ( 'NONE',  ( -0.0000000000000000000, -0.0000000000000000000, 1.000000000000000000 ) ) ;
#84 = DATE_AND_TIME ( #104, #81 ) ;
#85 = CALENDAR_DATE ( 2015, 24, 2 ) ;
#86 = ORIENTED_EDGE ( 'NONE', *, *, #174, .T. ) ;
#87 = PERSON ( 'UNSPECIFIED', 'UNSPECIFIED', 'UNSPECIFIED', ('UNSPECIFIED'), ('UNSPECIFIED'), ('UNSPECIFIED') ) ;
#88 = AXIS2_PLACEMENT_3D ( 'NONE', #142, #26, #45 ) ;
#89 = CARTESIAN_POINT ( 'NONE',  ( 0.0000000000000000000, 0.0000000000000000000, 1.494910967095921100 ) ) ;
#90 = CC_DESIGN_APPROVAL ( #132, ( #27 ) ) ;
#91 = CC_DESIGN_PERSON_AND_ORGANIZATION_ASSIGNMENT ( #106, #53, ( #27 ) ) ;
#92 = DIRECTION ( 'NONE',  ( -0.0000000000000000000, -0.0000000000000000000, 1.000000000000000000 ) ) ;
#93 = AXIS2_PLACEMENT_3D ( 'NONE', #153, #100, #47 ) ;
#94 = CARTESIAN_POINT ( 'NONE',  ( -2.999999999999999100, 3.673940397442058900E-016, 9.017153270429325600 ) ) ;
#95 = COORDINATED_UNIVERSAL_TIME_OFFSET ( 5, 0, .BEHIND. ) ;
#96 = CC_DESIGN_PERSON_AND_ORGANIZATION_ASSIGNMENT ( #9, #212, ( #140 ) ) ;
#97 = CIRCLE ( 'NONE', #13, 2.999999999999999100 ) ;
#98 = APPROVAL_DATE_TIME ( #55, #18 ) ;
#99 = ADVANCED_FACE ( 'NONE', ( #138 ), #143, .T. ) ;
#100 = DIRECTION ( 'NONE',  ( -0.0000000000000000000, -0.0000000000000000000, 1.000000000000000000 ) ) ;
#101 = CLOSED_SHELL ( 'NONE', ( #192, #208, #31, #129, #99 ) ) ;
#102 = DIRECTION ( 'NONE',  ( 1.000000000000000000, 0.0000000000000000000, 0.0000000000000000000 ) ) ;
#103 = PERSON_AND_ORGANIZATION ( #87, #68 ) ;
#104 = CALENDAR_DATE ( 2015, 24, 2 ) ;
#105 =( NAMED_UNIT ( * ) PLANE_ANGLE_UNIT ( ) SI_UNIT ( $, .RADIAN. ) );
#106 = PERSON_AND_ORGANIZATION ( #87, #68 ) ;
#107 = PRODUCT_DEFINITION_FORMATION_WITH_SPECIFIED_SOURCE ( 'ANY', '', #165, .NOT_KNOWN. ) ;
#108 = CARTESIAN_POINT ( 'NONE',  ( 0.0000000000000000000, 0.0000000000000000000, 0.0000000000000000000 ) ) ;
#109 = APPLICATION_PROTOCOL_DEFINITION ( 'international standard', 'config_control_design', 1994, #56 ) ;
#110 = VECTOR ( 'NONE', #92, 1000.000000000000000 ) ;
#111 = CC_DESIGN_PERSON_AND_ORGANIZATION_ASSIGNMENT ( #180, #146, ( #107 ) ) ;
#112 = DIRECTION ( 'NONE',  ( 1.000000000000000000, 0.0000000000000000000, 0.0000000000000000000 ) ) ;
#113 = APPROVAL_PERSON_ORGANIZATION ( #59, #62, #219 ) ;
#114 = ORIENTED_EDGE ( 'NONE', *, *, #117, .F. ) ;
#115 = ORIENTED_EDGE ( 'NONE', *, *, #17, .F. ) ;
#116 = APPLICATION_CONTEXT ( 'configuration controlled 3d designs of mechanical parts and assemblies' ) ;
#117 = EDGE_CURVE ( 'NONE', #185, #149, #204, .T. ) ;
#118 = DIRECTION ( 'NONE',  ( -0.0000000000000000000, -0.0000000000000000000, 1.000000000000000000 ) ) ;
#119 = AXIS2_PLACEMENT_3D ( 'NONE', #58, #83, #198 ) ;
#120 = CARTESIAN_POINT ( 'NONE',  ( 0.0000000000000000000, 2.999999999999997300, 1.494910967095921100 ) ) ;
#121 = COORDINATED_UNIVERSAL_TIME_OFFSET ( 5, 0, .BEHIND. ) ;
#122 = VERTEX_POINT ( 'NONE', #196 ) ;
#123 = SPHERICAL_SURFACE ( 'NONE', #88, 9.339999999999998100 ) ;
#124 = DIRECTION ( 'NONE',  ( -0.0000000000000000000, -0.0000000000000000000, 1.000000000000000000 ) ) ;
#125 = PERSON_AND_ORGANIZATION_ROLE ( 'creator' ) ;
#126 = CALENDAR_DATE ( 2015, 24, 2 ) ;
#127 = CIRCLE ( 'NONE', #214, 9.339999999999998100 ) ;
#128 = AXIS2_PLACEMENT_3D ( 'NONE', #36, #151, #20 ) ;
#129 = ADVANCED_FACE ( 'NONE', ( #163 ), #32, .F. ) ;
#130 = APPROVAL_ROLE ( '' ) ;
#131 = CC_DESIGN_DATE_AND_TIME_ASSIGNMENT ( #84, #200, ( #27 ) ) ;
#132 = APPROVAL ( #23, 'UNSPECIFIED' ) ;
#133 = DIRECTION ( 'NONE',  ( 1.000000000000000000, 0.0000000000000000000, 0.0000000000000000000 ) ) ;
#134 = CC_DESIGN_APPROVAL ( #62, ( #107 ) ) ;
#135 = CIRCLE ( 'NONE', #156, 2.999999999999999100 ) ;
#136 = ORIENTED_EDGE ( 'NONE', *, *, #154, .F. ) ;
#137 = ORIENTED_EDGE ( 'NONE', *, *, #30, .T. ) ;
#138 = FACE_OUTER_BOUND ( 'NONE', #216, .T. ) ;
#139 = DIRECTION ( 'NONE',  ( -0.0000000000000000000, -0.0000000000000000000, 1.000000000000000000 ) ) ;
#140 = SECURITY_CLASSIFICATION ( '', '', #74 ) ;
#141 = ORIENTED_EDGE ( 'NONE', *, *, #170, .T. ) ;
#142 = CARTESIAN_POINT ( 'NONE',  ( 0.0000000000000000000, 0.0000000000000000000, 10.33999999999999800 ) ) ;
#143 = CYLINDRICAL_SURFACE ( 'NONE', #150, 2.999999999999999100 ) ;
#144 = DIRECTION ( 'NONE',  ( 0.0000000000000000000, -0.0000000000000000000, 1.000000000000000000 ) ) ;
#145 = COORDINATED_UNIVERSAL_TIME_OFFSET ( 5, 0, .BEHIND. ) ;
#146 = PERSON_AND_ORGANIZATION_ROLE ( 'design_supplier' ) ;
#147 = ORIENTED_EDGE ( 'NONE', *, *, #63, .T. ) ;
#148 = VERTEX_POINT ( 'NONE', #49 ) ;
#149 = VERTEX_POINT ( 'NONE', #120 ) ;
#150 = AXIS2_PLACEMENT_3D ( 'NONE', #177, #124, #102 ) ;
#151 = DIRECTION ( 'NONE',  ( -1.000000000000000000, 1.224646799147353200E-016, 0.0000000000000000000 ) ) ;
#152 = CALENDAR_DATE ( 2015, 24, 2 ) ;
#153 = CARTESIAN_POINT ( 'NONE',  ( 0.0000000000000000000, 0.0000000000000000000, -1.000000000000000900 ) ) ;
#154 = EDGE_CURVE ( 'NONE', #155, #159, #72, .T. ) ;
#155 = VERTEX_POINT ( 'NONE', #164 ) ;
#156 = AXIS2_PLACEMENT_3D ( 'NONE', #89, #24, #69 ) ;
#157 = DATE_AND_TIME ( #85, #57 ) ;
#158 = CARTESIAN_POINT ( 'NONE',  ( 0.0000000000000000000, 0.0000000000000000000, 10.33999999999999800 ) ) ;
#159 = VERTEX_POINT ( 'NONE', #190 ) ;
#160 = APPROVAL_PERSON_ORGANIZATION ( #50, #18, #16 ) ;
#161 = CARTESIAN_POINT ( 'NONE',  ( 0.0000000000000000000, 0.0000000000000000000, -1.000000000000000900 ) ) ;
#162 = MECHANICAL_CONTEXT ( 'NONE', #56, 'mechanical' ) ;
#163 = FACE_OUTER_BOUND ( 'NONE', #22, .T. ) ;
#164 = CARTESIAN_POINT ( 'NONE',  ( -2.999999999999999100, 3.673940397442058900E-016, -1.000000000000000900 ) ) ;
#165 = PRODUCT ( '5441-E0W', '5441-E0W', '', ( #162 ) ) ;
#166 = COORDINATED_UNIVERSAL_TIME_OFFSET ( 5, 0, .BEHIND. ) ;
#167 = ORIENTED_EDGE ( 'NONE', *, *, #30, .F. ) ;
#168 = VERTEX_POINT ( 'NONE', #215 ) ;
#169 = AXIS2_PLACEMENT_3D ( 'NONE', #12, #77, #52 ) ;
#170 = EDGE_CURVE ( 'NONE', #149, #159, #11, .T. ) ;
#171 = DIRECTION ( 'NONE',  ( 1.000000000000000000, 0.0000000000000000000, 0.0000000000000000000 ) ) ;
#172 = CARTESIAN_POINT ( 'NONE',  ( 2.999999999999999100, 0.0000000000000000000, 9.017153270429325600 ) ) ;
#173 = CALENDAR_DATE ( 2015, 24, 2 ) ;
#174 = EDGE_CURVE ( 'NONE', #148, #185, #135, .T. ) ;
#175 = ORIENTED_EDGE ( 'NONE', *, *, #206, .T. ) ;
#176 = AXIS2_PLACEMENT_3D ( 'NONE', #217, #144, #171 ) ;
#177 = CARTESIAN_POINT ( 'NONE',  ( 0.0000000000000000000, 0.0000000000000000000, 9.017153270429325600 ) ) ;
#178 = ORIENTED_EDGE ( 'NONE', *, *, #211, .F. ) ;
#179 = CC_DESIGN_APPROVAL ( #18, ( #140 ) ) ;
#180 = PERSON_AND_ORGANIZATION ( #87, #68 ) ;
#181 = DATE_AND_TIME ( #152, #10 ) ;
#182 = CARTESIAN_POINT ( 'NONE',  ( 0.0000000000000000000, 0.0000000000000000000, 10.33999999999999800 ) ) ;
#183 = APPROVAL_DATE_TIME ( #157, #132 ) ;
#184 = DIRECTION ( 'NONE',  ( 1.000000000000000000, 0.0000000000000000000, 0.0000000000000000000 ) ) ;
#185 = VERTEX_POINT ( 'NONE', #43 ) ;
#186 = CC_DESIGN_SECURITY_CLASSIFICATION ( #140, ( #107 ) ) ;
#187 = DIRECTION ( 'NONE',  ( 0.0000000000000000000, 1.000000000000000000, 0.0000000000000000000 ) ) ;
#188 = APPLICATION_PROTOCOL_DEFINITION ( 'international standard', 'config_control_design', 1994, #116 ) ;
#189 = CYLINDRICAL_SURFACE ( 'NONE', #76, 2.999999999999999100 ) ;
#190 = CARTESIAN_POINT ( 'NONE',  ( -2.999999999999999100, 3.673940397442058900E-016, 1.494910967095921100 ) ) ;
#191 = CC_DESIGN_DATE_AND_TIME_ASSIGNMENT ( #181, #202, ( #140 ) ) ;
#192 = ADVANCED_FACE ( 'NONE', ( #205 ), #189, .T. ) ;
#193 =( LENGTH_UNIT ( ) NAMED_UNIT ( * ) SI_UNIT ( .MILLI., .METRE. ) );
#194 = VECTOR ( 'NONE', #28, 1000.000000000000000 ) ;
#195 = UNCERTAINTY_MEASURE_WITH_UNIT (LENGTH_MEASURE( 1.000000000000000100E-005 ), #193, 'distance_accuracy_value', 'NONE');
#196 = CARTESIAN_POINT ( 'NONE',  ( 0.0000000000000000000, 5.719100552018137400E-016, 1.000000000000000900 ) ) ;
#197 = ORIENTED_EDGE ( 'NONE', *, *, #63, .F. ) ;
#198 = DIRECTION ( 'NONE',  ( 1.000000000000000000, 0.0000000000000000000, 0.0000000000000000000 ) ) ;
#199 = AXIS2_PLACEMENT_3D ( 'NONE', #8, #139, #112 ) ;
#200 = DATE_TIME_ROLE ( 'creation_date' ) ;
#201 = ADVANCED_BREP_SHAPE_REPRESENTATION ( '5441-E0W', ( #54, #38 ), #48 ) ;
#202 = DATE_TIME_ROLE ( 'classification_date' ) ;
#203 = PERSON_AND_ORGANIZATION ( #87, #68 ) ;
#204 = CIRCLE ( 'NONE', #169, 2.999999999999999100 ) ;
#205 = FACE_OUTER_BOUND ( 'NONE', #209, .T. ) ;
#206 = EDGE_CURVE ( 'NONE', #122, #149, #127, .T. ) ;
#207 = CARTESIAN_POINT ( 'NONE',  ( 0.0000000000000000000, 0.0000000000000000000, 9.017153270429325600 ) ) ;
#208 = ADVANCED_FACE ( 'NONE', ( #220 ), #3, .F. ) ;
#209 = EDGE_LOOP ( 'NONE', ( #70, #5, #75, #114, #167 ) ) ;
#210 = PRODUCT_RELATED_PRODUCT_CATEGORY ( 'detail', '', ( #165 ) ) ;
#211 = EDGE_CURVE ( 'NONE', #155, #168, #97, .T. ) ;
#212 = PERSON_AND_ORGANIZATION_ROLE ( 'classification_officer' ) ;
#213 = PERSON_AND_ORGANIZATION_ROLE ( 'design_owner' ) ;
#214 = AXIS2_PLACEMENT_3D ( 'NONE', #158, #133, #39 ) ;
#215 = CARTESIAN_POINT ( 'NONE',  ( 2.999999999999999100, 0.0000000000000000000, -1.000000000000000900 ) ) ;
#216 = EDGE_LOOP ( 'NONE', ( #136, #44, #137, #2, #42 ) ) ;
#217 = CARTESIAN_POINT ( 'NONE',  ( 0.0000000000000000000, 3.673940397442059900E-016, -1.000000000000000000 ) ) ;
#218 = CC_DESIGN_PERSON_AND_ORGANIZATION_ASSIGNMENT ( #203, #213, ( #165 ) ) ;
#219 = APPROVAL_ROLE ( '' ) ;
#220 = FACE_OUTER_BOUND ( 'NONE', #1, .T. ) ;
#221 = LOCAL_TIME ( 11, 46, 7.000000000000000000, #121 ) ;
ENDSEC;
END-ISO-10303-21;
