ISO-10303-21;
HEADER;
FILE_DESCRIPTION (( 'STEP AP203' ),
    '1' );
FILE_NAME ('Web Model 37688_38779.step',
    '2018-08-03T18:41:26',
    ( '' ),
    ( '' ),
    'SwSTEP 2.0',
    'SolidWorks 2016',
    '' );
FILE_SCHEMA (( 'CONFIG_CONTROL_DESIGN' ));
ENDSEC;

DATA;
#1 = COORDINATED_UNIVERSAL_TIME_OFFSET ( 5, 0, .BEHIND. ) ;
#2 = SECURITY_CLASSIFICATION ( '', '', #35 ) ;
#3 = ADVANCED_FACE ( 'NONE', ( #27 ), #150, .F. ) ;
#4 = ADVANCED_FACE ( 'NONE', ( #124 ), #65, .T. ) ;
#5 = CARTESIAN_POINT ( 'NONE',  ( 0.0000000000000000000, 0.0000000000000000000, 3.174999999999999800 ) ) ;
#6 = CIRCLE ( 'NONE', #112, 6.349999999999999600 ) ;
#7 = CC_DESIGN_APPROVAL ( #126, ( #136 ) ) ;
#8 = APPROVAL_STATUS ( 'not_yet_approved' ) ;
#9 = LOCAL_TIME ( 14, 41, 26.00000000000000000, #1 ) ;
#10 = APPROVAL_ROLE ( '' ) ;
#11 = EDGE_LOOP ( 'NONE', ( #156, #137, #157, #63 ) ) ;
#12 = VERTEX_POINT ( 'NONE', #69 ) ;
#13 = EDGE_CURVE ( 'NONE', #62, #12, #14, .T. ) ;
#14 = LINE ( 'NONE', #53, #105 ) ;
#15 = ORIENTED_EDGE ( 'NONE', *, *, #135, .T. ) ;
#16 = DATE_AND_TIME ( #97, #19 ) ;
#17 = PRODUCT_DEFINITION_FORMATION_WITH_SPECIFIED_SOURCE ( 'ANY', '', #166, .NOT_KNOWN. ) ;
#18 = DESIGN_CONTEXT ( 'detailed design', #108, 'design' ) ;
#19 = LOCAL_TIME ( 14, 41, 26.00000000000000000, #46 ) ;
#20 = PLANE ( 'NONE',  #131 ) ;
#21 = CC_DESIGN_PERSON_AND_ORGANIZATION_ASSIGNMENT ( #93, #87, ( #166 ) ) ;
#22 = APPLICATION_CONTEXT ( 'configuration controlled 3d designs of mechanical parts and assemblies' ) ;
#23 =( NAMED_UNIT ( * ) SI_UNIT ( $, .STERADIAN. ) SOLID_ANGLE_UNIT ( ) );
#24 = APPROVAL_ROLE ( '' ) ;
#25 = DATE_TIME_ROLE ( 'creation_date' ) ;
#26 = LOCAL_TIME ( 14, 41, 26.00000000000000000, #91 ) ;
#27 = FACE_OUTER_BOUND ( 'NONE', #109, .T. ) ;
#28 = EDGE_LOOP ( 'NONE', ( #90, #175 ) ) ;
#29 = AXIS2_PLACEMENT_3D ( 'NONE', #164, #85, #71 ) ;
#30 = DIRECTION ( 'NONE',  ( 0.0000000000000000000, 0.0000000000000000000, 1.000000000000000000 ) ) ;
#31 = CIRCLE ( 'NONE', #81, 6.349999999999999600 ) ;
#32 = CARTESIAN_POINT ( 'NONE',  ( -6.349999999999999600, 0.0000000000000000000, 3.174999999999999800 ) ) ;
#33 = CC_DESIGN_PERSON_AND_ORGANIZATION_ASSIGNMENT ( #67, #117, ( #17 ) ) ;
#34 = PERSON_AND_ORGANIZATION ( #55, #94 ) ;
#35 = SECURITY_CLASSIFICATION_LEVEL ( 'unclassified' ) ;
#36 = UNCERTAINTY_MEASURE_WITH_UNIT (LENGTH_MEASURE( 1.000000000000000100E-005 ), #42, 'distance_accuracy_value', 'NONE');
#37 = FACE_OUTER_BOUND ( 'NONE', #28, .T. ) ;
#38 = APPROVAL_PERSON_ORGANIZATION ( #110, #160, #24 ) ;
#39 = DIRECTION ( 'NONE',  ( -0.0000000000000000000, -0.0000000000000000000, -1.000000000000000000 ) ) ;
#40 = CARTESIAN_POINT ( 'NONE',  ( 0.0000000000000000000, 0.0000000000000000000, -3.174999999999999800 ) ) ;
#41 = DATE_AND_TIME ( #95, #80 ) ;
#42 =( LENGTH_UNIT ( ) NAMED_UNIT ( * ) SI_UNIT ( .MILLI., .METRE. ) );
#43 = FACE_OUTER_BOUND ( 'NONE', #11, .T. ) ;
#44 = DATE_AND_TIME ( #74, #9 ) ;
#45 = PERSON_AND_ORGANIZATION_ROLE ( 'classification_officer' ) ;
#46 = COORDINATED_UNIVERSAL_TIME_OFFSET ( 5, 0, .BEHIND. ) ;
#47 = ORIENTED_EDGE ( 'NONE', *, *, #88, .F. ) ;
#48 = COORDINATED_UNIVERSAL_TIME_OFFSET ( 5, 0, .BEHIND. ) ;
#49 = ORIENTED_EDGE ( 'NONE', *, *, #13, .F. ) ;
#50 = APPROVAL_PERSON_ORGANIZATION ( #171, #126, #10 ) ;
#51 = CARTESIAN_POINT ( 'NONE',  ( 0.0000000000000000000, 0.0000000000000000000, -3.174999999999999800 ) ) ;
#52 = CALENDAR_DATE ( 2018, 3, 8 ) ;
#53 = CARTESIAN_POINT ( 'NONE',  ( 6.349999999999999600, 7.776507174585692200E-016, 3.174999999999999800 ) ) ;
#54 = DIRECTION ( 'NONE',  ( -1.000000000000000000, 0.0000000000000000000, 0.0000000000000000000 ) ) ;
#55 = PERSON ( 'UNSPECIFIED', 'UNSPECIFIED', 'UNSPECIFIED', ('UNSPECIFIED'), ('UNSPECIFIED'), ('UNSPECIFIED') ) ;
#56 = CARTESIAN_POINT ( 'NONE',  ( 0.0000000000000000000, 0.0000000000000000000, 0.0000000000000000000 ) ) ;
#57 = DIRECTION ( 'NONE',  ( 1.000000000000000000, 0.0000000000000000000, 0.0000000000000000000 ) ) ;
#58 = APPROVAL_DATE_TIME ( #16, #126 ) ;
#59 = APPLICATION_PROTOCOL_DEFINITION ( 'international standard', 'config_control_design', 1994, #108 ) ;
#60 = VECTOR ( 'NONE', #129, 1000.000000000000000 ) ;
#61 = AXIS2_PLACEMENT_3D ( 'NONE', #99, #39, #54 ) ;
#62 = VERTEX_POINT ( 'NONE', #98 ) ;
#63 = ORIENTED_EDGE ( 'NONE', *, *, #135, .F. ) ;
#64 = PERSON_AND_ORGANIZATION ( #55, #94 ) ;
#65 = CYLINDRICAL_SURFACE ( 'NONE', #61, 6.349999999999999600 ) ;
#66 = VERTEX_POINT ( 'NONE', #32 ) ;
#67 = PERSON_AND_ORGANIZATION ( #55, #94 ) ;
#68 = DIRECTION ( 'NONE',  ( 0.0000000000000000000, 0.0000000000000000000, 1.000000000000000000 ) ) ;
#69 = CARTESIAN_POINT ( 'NONE',  ( 6.349999999999999600, 7.776507174585692200E-016, -3.174999999999999800 ) ) ;
#70 = DIRECTION ( 'NONE',  ( 1.000000000000000000, 0.0000000000000000000, 0.0000000000000000000 ) ) ;
#71 = DIRECTION ( 'NONE',  ( -1.000000000000000000, 0.0000000000000000000, 0.0000000000000000000 ) ) ;
#72 = AXIS2_PLACEMENT_3D ( 'NONE', #51, #127, #168 ) ;
#73 = ORIENTED_EDGE ( 'NONE', *, *, #134, .F. ) ;
#74 = CALENDAR_DATE ( 2018, 3, 8 ) ;
#75 = MECHANICAL_CONTEXT ( 'NONE', #22, 'mechanical' ) ;
#76 = AXIS2_PLACEMENT_3D ( 'NONE', #40, #139, #116 ) ;
#77 = CC_DESIGN_APPROVAL ( #160, ( #17 ) ) ;
#78 = APPROVAL_DATE_TIME ( #119, #160 ) ;
#79 = CC_DESIGN_DATE_AND_TIME_ASSIGNMENT ( #107, #170, ( #2 ) ) ;
#80 = LOCAL_TIME ( 14, 41, 26.00000000000000000, #48 ) ;
#81 = AXIS2_PLACEMENT_3D ( 'NONE', #142, #86, #140 ) ;
#82 = CC_DESIGN_PERSON_AND_ORGANIZATION_ASSIGNMENT ( #138, #45, ( #2 ) ) ;
#83 =( GEOMETRIC_REPRESENTATION_CONTEXT ( 3 ) GLOBAL_UNCERTAINTY_ASSIGNED_CONTEXT ( ( #36 ) ) GLOBAL_UNIT_ASSIGNED_CONTEXT ( ( #42, #121, #23 ) ) REPRESENTATION_CONTEXT ( 'NONE', 'WORKASPACE' ) );
#84 = COORDINATED_UNIVERSAL_TIME_OFFSET ( 5, 0, .BEHIND. ) ;
#85 = DIRECTION ( 'NONE',  ( -0.0000000000000000000, -0.0000000000000000000, -1.000000000000000000 ) ) ;
#86 = DIRECTION ( 'NONE',  ( 0.0000000000000000000, 0.0000000000000000000, 1.000000000000000000 ) ) ;
#87 = PERSON_AND_ORGANIZATION_ROLE ( 'design_owner' ) ;
#88 = EDGE_CURVE ( 'NONE', #12, #113, #144, .T. ) ;
#89 = PERSON_AND_ORGANIZATION_ROLE ( 'design_supplier' ) ;
#90 = ORIENTED_EDGE ( 'NONE', *, *, #123, .T. ) ;
#91 = COORDINATED_UNIVERSAL_TIME_OFFSET ( 5, 0, .BEHIND. ) ;
#92 = PERSON_AND_ORGANIZATION_ROLE ( 'creator' ) ;
#93 = PERSON_AND_ORGANIZATION ( #55, #94 ) ;
#94 = ORGANIZATION ( 'UNSPECIFIED', 'UNSPECIFIED', '' ) ;
#95 = CALENDAR_DATE ( 2018, 3, 8 ) ;
#96 = ADVANCED_FACE ( 'NONE', ( #43 ), #111, .T. ) ;
#97 = CALENDAR_DATE ( 2018, 3, 8 ) ;
#98 = CARTESIAN_POINT ( 'NONE',  ( 6.349999999999999600, 7.776507174585692200E-016, 3.174999999999999800 ) ) ;
#99 = CARTESIAN_POINT ( 'NONE',  ( 0.0000000000000000000, 0.0000000000000000000, 3.174999999999999800 ) ) ;
#100 = MANIFOLD_SOLID_BREP ( 'Boss-Extrude1', #161 ) ;
#101 = DIRECTION ( 'NONE',  ( 1.000000000000000000, 0.0000000000000000000, -0.0000000000000000000 ) ) ;
#102 = ORIENTED_EDGE ( 'NONE', *, *, #123, .F. ) ;
#103 = EDGE_CURVE ( 'NONE', #62, #66, #143, .T. ) ;
#104 = DIRECTION ( 'NONE',  ( 0.0000000000000000000, 0.0000000000000000000, 1.000000000000000000 ) ) ;
#105 = VECTOR ( 'NONE', #167, 1000.000000000000000 ) ;
#106 = PRODUCT_DEFINITION_SHAPE ( 'NONE', 'NONE',  #136 ) ;
#107 = DATE_AND_TIME ( #153, #26 ) ;
#108 = APPLICATION_CONTEXT ( 'configuration controlled 3d designs of mechanical parts and assemblies' ) ;
#109 = EDGE_LOOP ( 'NONE', ( #73, #47 ) ) ;
#110 = PERSON_AND_ORGANIZATION ( #55, #94 ) ;
#111 = CYLINDRICAL_SURFACE ( 'NONE', #29, 6.349999999999999600 ) ;
#112 = AXIS2_PLACEMENT_3D ( 'NONE', #162, #30, #70 ) ;
#113 = VERTEX_POINT ( 'NONE', #155 ) ;
#114 = CC_DESIGN_DATE_AND_TIME_ASSIGNMENT ( #44, #25, ( #136 ) ) ;
#115 = CARTESIAN_POINT ( 'NONE',  ( -6.349999999999999600, 0.0000000000000000000, 3.174999999999999800 ) ) ;
#116 = DIRECTION ( 'NONE',  ( 1.000000000000000000, 0.0000000000000000000, 0.0000000000000000000 ) ) ;
#117 = PERSON_AND_ORGANIZATION_ROLE ( 'creator' ) ;
#118 = EDGE_LOOP ( 'NONE', ( #49, #102, #15, #148 ) ) ;
#119 = DATE_AND_TIME ( #52, #146 ) ;
#120 = APPROVAL_ROLE ( '' ) ;
#121 =( NAMED_UNIT ( * ) PLANE_ANGLE_UNIT ( ) SI_UNIT ( $, .RADIAN. ) );
#122 = APPROVAL_STATUS ( 'not_yet_approved' ) ;
#123 = EDGE_CURVE ( 'NONE', #66, #62, #6, .T. ) ;
#124 = FACE_OUTER_BOUND ( 'NONE', #118, .T. ) ;
#125 = ADVANCED_FACE ( 'NONE', ( #37 ), #20, .T. ) ;
#126 = APPROVAL ( #130, 'UNSPECIFIED' ) ;
#127 = DIRECTION ( 'NONE',  ( 0.0000000000000000000, 0.0000000000000000000, 1.000000000000000000 ) ) ;
#128 = APPROVAL_PERSON_ORGANIZATION ( #64, #152, #120 ) ;
#129 = DIRECTION ( 'NONE',  ( -0.0000000000000000000, -0.0000000000000000000, -1.000000000000000000 ) ) ;
#130 = APPROVAL_STATUS ( 'not_yet_approved' ) ;
#131 = AXIS2_PLACEMENT_3D ( 'NONE', #5, #163, #101 ) ;
#132 = CC_DESIGN_APPROVAL ( #152, ( #2 ) ) ;
#133 = SHAPE_DEFINITION_REPRESENTATION ( #106, #149 ) ;
#134 = EDGE_CURVE ( 'NONE', #113, #12, #31, .T. ) ;
#135 = EDGE_CURVE ( 'NONE', #66, #113, #165, .T. ) ;
#136 = PRODUCT_DEFINITION ( 'UNKNOWN', '', #17, #18 ) ;
#137 = ORIENTED_EDGE ( 'NONE', *, *, #13, .T. ) ;
#138 = PERSON_AND_ORGANIZATION ( #55, #94 ) ;
#139 = DIRECTION ( 'NONE',  ( 0.0000000000000000000, 0.0000000000000000000, 1.000000000000000000 ) ) ;
#140 = DIRECTION ( 'NONE',  ( 1.000000000000000000, 0.0000000000000000000, 0.0000000000000000000 ) ) ;
#141 = CC_DESIGN_SECURITY_CLASSIFICATION ( #2, ( #17 ) ) ;
#142 = CARTESIAN_POINT ( 'NONE',  ( 0.0000000000000000000, 0.0000000000000000000, -3.174999999999999800 ) ) ;
#143 = CIRCLE ( 'NONE', #159, 6.349999999999999600 ) ;
#144 = CIRCLE ( 'NONE', #76, 6.349999999999999600 ) ;
#145 = APPLICATION_PROTOCOL_DEFINITION ( 'international standard', 'config_control_design', 1994, #22 ) ;
#146 = LOCAL_TIME ( 14, 41, 26.00000000000000000, #84 ) ;
#147 = AXIS2_PLACEMENT_3D ( 'NONE', #56, #104, #57 ) ;
#148 = ORIENTED_EDGE ( 'NONE', *, *, #134, .T. ) ;
#149 = ADVANCED_BREP_SHAPE_REPRESENTATION ( 'Web Model 37688_38779', ( #100, #147 ), #83 ) ;
#150 = PLANE ( 'NONE',  #72 ) ;
#151 = DIRECTION ( 'NONE',  ( 1.000000000000000000, 0.0000000000000000000, 0.0000000000000000000 ) ) ;
#152 = APPROVAL ( #122, 'UNSPECIFIED' ) ;
#153 = CALENDAR_DATE ( 2018, 3, 8 ) ;
#154 = CARTESIAN_POINT ( 'NONE',  ( 0.0000000000000000000, 0.0000000000000000000, 3.174999999999999800 ) ) ;
#155 = CARTESIAN_POINT ( 'NONE',  ( -6.349999999999999600, 0.0000000000000000000, -3.174999999999999800 ) ) ;
#156 = ORIENTED_EDGE ( 'NONE', *, *, #103, .F. ) ;
#157 = ORIENTED_EDGE ( 'NONE', *, *, #88, .T. ) ;
#158 = PERSON_AND_ORGANIZATION ( #55, #94 ) ;
#159 = AXIS2_PLACEMENT_3D ( 'NONE', #154, #68, #151 ) ;
#160 = APPROVAL ( #8, 'UNSPECIFIED' ) ;
#161 = CLOSED_SHELL ( 'NONE', ( #96, #4, #125, #3 ) ) ;
#162 = CARTESIAN_POINT ( 'NONE',  ( 0.0000000000000000000, 0.0000000000000000000, 3.174999999999999800 ) ) ;
#163 = DIRECTION ( 'NONE',  ( 0.0000000000000000000, 0.0000000000000000000, 1.000000000000000000 ) ) ;
#164 = CARTESIAN_POINT ( 'NONE',  ( 0.0000000000000000000, 0.0000000000000000000, 3.174999999999999800 ) ) ;
#165 = LINE ( 'NONE', #115, #60 ) ;
#166 = PRODUCT ( 'Web Model 37688_38779', 'Web Model 37688_38779', '', ( #75 ) ) ;
#167 = DIRECTION ( 'NONE',  ( -0.0000000000000000000, -0.0000000000000000000, -1.000000000000000000 ) ) ;
#168 = DIRECTION ( 'NONE',  ( 1.000000000000000000, 0.0000000000000000000, -0.0000000000000000000 ) ) ;
#169 = APPROVAL_DATE_TIME ( #41, #152 ) ;
#170 = DATE_TIME_ROLE ( 'classification_date' ) ;
#171 = PERSON_AND_ORGANIZATION ( #55, #94 ) ;
#172 = CC_DESIGN_PERSON_AND_ORGANIZATION_ASSIGNMENT ( #34, #89, ( #17 ) ) ;
#173 = CC_DESIGN_PERSON_AND_ORGANIZATION_ASSIGNMENT ( #158, #92, ( #136 ) ) ;
#174 = PRODUCT_RELATED_PRODUCT_CATEGORY ( 'detail', '', ( #166 ) ) ;
#175 = ORIENTED_EDGE ( 'NONE', *, *, #103, .T. ) ;
ENDSEC;
END-ISO-10303-21;
