ISO-10303-21;
HEADER;
FILE_DESCRIPTION (( 'STEP AP203' ),
    '1' );
FILE_NAME ('4273-E0W.STEP',
    '2015-05-29T14:19:37',
    ( 'admin' ),
    ( '' ),
    'SwSTEP 2.0',
    'SolidWorks 2014',
    '' );
FILE_SCHEMA (( 'CONFIG_CONTROL_DESIGN' ));
ENDSEC;

DATA;
#1 = AXIS2_PLACEMENT_3D ( 'NONE', #276, #58, #274 ) ;
#2 = DATE_AND_TIME ( #154, #251 ) ;
#3 = CARTESIAN_POINT ( 'NONE',  ( -1.400000000000002400, 0.0000000000000000000, 0.0000000000000000000 ) ) ;
#4 = DIRECTION ( 'NONE',  ( -1.000000000000000000, -0.0000000000000000000, -0.0000000000000000000 ) ) ;
#5 = DIRECTION ( 'NONE',  ( -0.8524815459514488700, 0.0000000000000000000, 0.5227573182770640600 ) ) ;
#6 = LINE ( 'NONE', #68, #62 ) ;
#7 = ORIENTED_EDGE ( 'NONE', *, *, #158, .T. ) ;
#8 = EDGE_CURVE ( 'NONE', #122, #125, #46, .T. ) ;
#9 = ORIENTED_EDGE ( 'NONE', *, *, #231, .T. ) ;
#10 = CARTESIAN_POINT ( 'NONE',  ( -1.649999999999999900, 0.0000000000000000000, 0.0000000000000000000 ) ) ;
#11 = PERSON_AND_ORGANIZATION_ROLE ( 'creator' ) ;
#12 = ADVANCED_FACE ( 'NONE', ( #297 ), #64, .T. ) ;
#13 = DIRECTION ( 'NONE',  ( -1.000000000000000000, -0.0000000000000000000, -0.0000000000000000000 ) ) ;
#14 = CARTESIAN_POINT ( 'NONE',  ( 0.2597745401846730000, 0.0000000000000000000, 6.129379653783130000 ) ) ;
#15 = DIRECTION ( 'NONE',  ( 0.0000000000000000000, 0.0000000000000000000, -1.000000000000000000 ) ) ;
#16 = ADVANCED_FACE ( 'NONE', ( #153 ), #266, .T. ) ;
#17 = PERSON_AND_ORGANIZATION_ROLE ( 'design_supplier' ) ;
#18 = EDGE_CURVE ( 'NONE', #216, #126, #77, .T. ) ;
#19 = DATE_TIME_ROLE ( 'classification_date' ) ;
#20 = AXIS2_PLACEMENT_3D ( 'NONE', #45, #82, #103 ) ;
#21 = EDGE_LOOP ( 'NONE', ( #107, #69, #285 ) ) ;
#22 = EDGE_CURVE ( 'NONE', #235, #126, #157, .T. ) ;
#23 = UNCERTAINTY_MEASURE_WITH_UNIT (LENGTH_MEASURE( 1.000000000000000100E-005 ), #287, 'distance_accuracy_value', 'NONE');
#24 = FACE_OUTER_BOUND ( 'NONE', #176, .T. ) ;
#25 = CARTESIAN_POINT ( 'NONE',  ( -0.09999999999999592500, 7.776507174585692200E-016, -6.349999999999999600 ) ) ;
#26 = EDGE_LOOP ( 'NONE', ( #61, #132, #253, #134 ) ) ;
#27 = ADVANCED_FACE ( 'NONE', ( #156 ), #250, .T. ) ;
#28 = ORIENTED_EDGE ( 'NONE', *, *, #72, .T. ) ;
#29 = VECTOR ( 'NONE', #162, 1000.000000000000100 ) ;
#30 = SHAPE_DEFINITION_REPRESENTATION ( #264, #81 ) ;
#31 = PERSON ( 'UNSPECIFIED', 'UNSPECIFIED', 'UNSPECIFIED', ('UNSPECIFIED'), ('UNSPECIFIED'), ('UNSPECIFIED') ) ;
#32 = PRODUCT_RELATED_PRODUCT_CATEGORY ( 'detail', '', ( #38 ) ) ;
#33 = ADVANCED_FACE ( 'NONE', ( #101 ), #213, .T. ) ;
#34 = DIRECTION ( 'NONE',  ( 0.0000000000000000000, 0.0000000000000000000, -1.000000000000000000 ) ) ;
#35 = CARTESIAN_POINT ( 'NONE',  ( 1.649999999999999900, 0.0000000000000000000, 0.0000000000000000000 ) ) ;
#36 = PRODUCT_DEFINITION ( 'UNKNOWN', '', #206, #109 ) ;
#37 = CARTESIAN_POINT ( 'NONE',  ( -1.649999999999999900, 7.623426324692274200E-016, 6.100000000000001400 ) ) ;
#38 = PRODUCT ( '4273-E0W', '4273-E0W', '', ( #185 ) ) ;
#39 = ORIENTED_EDGE ( 'NONE', *, *, #22, .F. ) ;
#40 = CC_DESIGN_DATE_AND_TIME_ASSIGNMENT ( #164, #19, ( #201 ) ) ;
#41 = ORIENTED_EDGE ( 'NONE', *, *, #160, .T. ) ;
#42 = VECTOR ( 'NONE', #92, 1000.000000000000000 ) ;
#43 = AXIS2_PLACEMENT_3D ( 'NONE', #211, #48, #55 ) ;
#44 = CARTESIAN_POINT ( 'NONE',  ( -1.649999999999999900, 7.776507174585692200E-016, -6.349999999999999600 ) ) ;
#45 = CARTESIAN_POINT ( 'NONE',  ( -1.649999999999999900, 0.0000000000000000000, 0.0000000000000000000 ) ) ;
#46 = CIRCLE ( 'NONE', #283, 13.80000000000000200 ) ;
#47 = ORIENTED_EDGE ( 'NONE', *, *, #183, .F. ) ;
#48 = DIRECTION ( 'NONE',  ( 1.000000000000000000, 0.0000000000000000000, 0.0000000000000000000 ) ) ;
#49 = APPROVAL_PERSON_ORGANIZATION ( #192, #233, #196 ) ;
#50 = CLOSED_SHELL ( 'NONE', ( #144, #289, #27, #186, #236, #33, #12, #76, #16 ) ) ;
#51 = APPLICATION_CONTEXT ( 'configuration controlled 3d designs of mechanical parts and assemblies' ) ;
#52 = AXIS2_PLACEMENT_3D ( 'NONE', #273, #271, #269 ) ;
#53 = LINE ( 'NONE', #225, #29 ) ;
#54 = AXIS2_PLACEMENT_3D ( 'NONE', #3, #105, #56 ) ;
#55 = DIRECTION ( 'NONE',  ( 0.0000000000000000000, 0.0000000000000000000, 1.000000000000000000 ) ) ;
#56 = DIRECTION ( 'NONE',  ( 0.0000000000000000000, 0.0000000000000000000, -1.000000000000000000 ) ) ;
#57 = AXIS2_PLACEMENT_3D ( 'NONE', #138, #190, #15 ) ;
#58 = DIRECTION ( 'NONE',  ( -1.000000000000000000, -0.0000000000000000000, -0.0000000000000000000 ) ) ;
#59 = CIRCLE ( 'NONE', #167, 6.129379653783128200 ) ;
#60 = CARTESIAN_POINT ( 'NONE',  ( -1.649999999999999900, 0.0000000000000000000, -6.100000000000001400 ) ) ;
#61 = ORIENTED_EDGE ( 'NONE', *, *, #78, .F. ) ;
#62 = VECTOR ( 'NONE', #180, 1000.000000000000000 ) ;
#63 = CARTESIAN_POINT ( 'NONE',  ( -1.400000000000002400, 0.0000000000000000000, 0.0000000000000000000 ) ) ;
#64 = TOROIDAL_SURFACE ( 'NONE', #263, 0.09239590121737015200, 13.80000000000000200 ) ;
#65 = APPROVAL_ROLE ( '' ) ;
#66 = CC_DESIGN_APPROVAL ( #100, ( #36 ) ) ;
#67 = CARTESIAN_POINT ( 'NONE',  ( -1.649999999999999900, 0.0000000000000000000, 6.349999999999999600 ) ) ;
#68 = CARTESIAN_POINT ( 'NONE',  ( -1.649999999999999900, 0.0000000000000000000, -6.100000000000001400 ) ) ;
#69 = ORIENTED_EDGE ( 'NONE', *, *, #8, .T. ) ;
#70 = APPROVAL ( #278, 'UNSPECIFIED' ) ;
#71 = ORIENTED_EDGE ( 'NONE', *, *, #228, .T. ) ;
#72 = EDGE_CURVE ( 'NONE', #122, #275, #151, .T. ) ;
#73 = CARTESIAN_POINT ( 'NONE',  ( -0.09999999999999592500, 0.0000000000000000000, 0.0000000000000000000 ) ) ;
#74 = EDGE_LOOP ( 'NONE', ( #47, #113, #7, #120 ) ) ;
#75 = ORIENTED_EDGE ( 'NONE', *, *, #139, .T. ) ;
#76 = ADVANCED_FACE ( 'NONE', ( #173 ), #97, .T. ) ;
#77 = CIRCLE ( 'NONE', #54, 6.349999999999999600 ) ;
#78 = EDGE_CURVE ( 'NONE', #235, #260, #88, .T. ) ;
#79 = CARTESIAN_POINT ( 'NONE',  ( -0.09999999999999592500, 0.0000000000000000000, 0.0000000000000000000 ) ) ;
#80 = PERSON_AND_ORGANIZATION ( #31, #262 ) ;
#81 = ADVANCED_BREP_SHAPE_REPRESENTATION ( '4273-E0W', ( #110, #279 ), #191 ) ;
#82 = DIRECTION ( 'NONE',  ( 1.000000000000000000, 0.0000000000000000000, 0.0000000000000000000 ) ) ;
#83 = CARTESIAN_POINT ( 'NONE',  ( -1.649999999999999900, 7.470345474798856300E-016, 6.100000000000001400 ) ) ;
#84 = ORIENTED_EDGE ( 'NONE', *, *, #18, .T. ) ;
#85 = DIRECTION ( 'NONE',  ( 0.0000000000000000000, 0.0000000000000000000, -1.000000000000000000 ) ) ;
#86 = EDGE_CURVE ( 'NONE', #267, #188, #301, .T. ) ;
#87 = CONICAL_SURFACE ( 'NONE', #181, 6.349999999999999600, 0.5500822159494683800 ) ;
#88 = CIRCLE ( 'NONE', #189, 6.100000000000001400 ) ;
#89 = DIRECTION ( 'NONE',  ( -1.000000000000000000, -0.0000000000000000000, -0.0000000000000000000 ) ) ;
#90 = CALENDAR_DATE ( 2015, 29, 5 ) ;
#91 = CARTESIAN_POINT ( 'NONE',  ( 0.2597745401846721100, 0.0000000000000000000, 0.0000000000000000000 ) ) ;
#92 = DIRECTION ( 'NONE',  ( -1.000000000000000000, -0.0000000000000000000, -0.0000000000000000000 ) ) ;
#93 = CYLINDRICAL_SURFACE ( 'NONE', #124, 6.349999999999999600 ) ;
#94 = EDGE_LOOP ( 'NONE', ( #39, #149, #71, #199 ) ) ;
#95 = FACE_OUTER_BOUND ( 'NONE', #299, .T. ) ;
#96 = PERSON_AND_ORGANIZATION ( #31, #262 ) ;
#97 = CONICAL_SURFACE ( 'NONE', #20, 6.100000000000001400, 0.7853981633974500600 ) ;
#98 = PERSON_AND_ORGANIZATION ( #31, #262 ) ;
#99 = CARTESIAN_POINT ( 'NONE',  ( -1.400000000000002400, 7.776507174585692200E-016, -6.349999999999999600 ) ) ;
#100 = APPROVAL ( #137, 'UNSPECIFIED' ) ;
#101 = FACE_OUTER_BOUND ( 'NONE', #215, .T. ) ;
#102 = LINE ( 'NONE', #67, #232 ) ;
#103 = DIRECTION ( 'NONE',  ( 0.0000000000000000000, 0.0000000000000000000, -1.000000000000000000 ) ) ;
#104 = DIRECTION ( 'NONE',  ( 0.0000000000000000000, 0.0000000000000000000, 1.000000000000000000 ) ) ;
#105 = DIRECTION ( 'NONE',  ( 1.000000000000000000, 0.0000000000000000000, 0.0000000000000000000 ) ) ;
#106 = AXIS2_PLACEMENT_3D ( 'NONE', #172, #200, #130 ) ;
#107 = ORIENTED_EDGE ( 'NONE', *, *, #72, .F. ) ;
#108 = DIRECTION ( 'NONE',  ( -1.000000000000000000, -0.0000000000000000000, -0.0000000000000000000 ) ) ;
#109 = DESIGN_CONTEXT ( 'detailed design', #223, 'design' ) ;
#110 = MANIFOLD_SOLID_BREP ( '4273-001-1-solid1', #50 ) ;
#111 = DIRECTION ( 'NONE',  ( 0.0000000000000000000, -1.000000000000000000, 0.0000000000000000000 ) ) ;
#112 = COORDINATED_UNIVERSAL_TIME_OFFSET ( 5, 0, .BEHIND. ) ;
#113 = ORIENTED_EDGE ( 'NONE', *, *, #245, .F. ) ;
#114 = CARTESIAN_POINT ( 'NONE',  ( -12.14969068484646500, 0.0000000000000000000, 0.0000000000000000000 ) ) ;
#115 = CIRCLE ( 'NONE', #155, 6.349999999999999600 ) ;
#116 = CC_DESIGN_PERSON_AND_ORGANIZATION_ASSIGNMENT ( #150, #244, ( #38 ) ) ;
#117 = APPLICATION_PROTOCOL_DEFINITION ( 'international standard', 'config_control_design', 1994, #223 ) ;
#118 = DIRECTION ( 'NONE',  ( 0.0000000000000000000, 0.0000000000000000000, 1.000000000000000000 ) ) ;
#119 = CALENDAR_DATE ( 2015, 29, 5 ) ;
#120 = ORIENTED_EDGE ( 'NONE', *, *, #231, .F. ) ;
#121 = DIRECTION ( 'NONE',  ( 0.0000000000000000000, 0.0000000000000000000, 1.000000000000000000 ) ) ;
#122 = VERTEX_POINT ( 'NONE', #35 ) ;
#123 = EDGE_LOOP ( 'NONE', ( #224, #28, #240 ) ) ;
#124 = AXIS2_PLACEMENT_3D ( 'NONE', #10, #145, #242 ) ;
#125 = VERTEX_POINT ( 'NONE', #14 ) ;
#126 = VERTEX_POINT ( 'NONE', #148 ) ;
#127 = APPROVAL_DATE_TIME ( #258, #70 ) ;
#128 = CALENDAR_DATE ( 2015, 29, 5 ) ;
#129 = ORIENTED_EDGE ( 'NONE', *, *, #238, .F. ) ;
#130 = DIRECTION ( 'NONE',  ( 0.0000000000000000000, -1.224646799147353200E-016, 1.000000000000000000 ) ) ;
#131 = CARTESIAN_POINT ( 'NONE',  ( -1.649999999999999900, 0.0000000000000000000, 0.0000000000000000000 ) ) ;
#132 = ORIENTED_EDGE ( 'NONE', *, *, #22, .T. ) ;
#133 = DIRECTION ( 'NONE',  ( -1.000000000000000000, -0.0000000000000000000, -0.0000000000000000000 ) ) ;
#134 = ORIENTED_EDGE ( 'NONE', *, *, #228, .F. ) ;
#135 = CC_DESIGN_PERSON_AND_ORGANIZATION_ASSIGNMENT ( #178, #209, ( #206 ) ) ;
#136 = LOCAL_TIME ( 10, 19, 37.00000000000000000, #234 ) ;
#137 = APPROVAL_STATUS ( 'not_yet_approved' ) ;
#138 = CARTESIAN_POINT ( 'NONE',  ( -1.649999999999999900, 0.0000000000000000000, 0.0000000000000000000 ) ) ;
#139 = EDGE_CURVE ( 'NONE', #188, #216, #212, .T. ) ;
#140 = CC_DESIGN_APPROVAL ( #233, ( #206 ) ) ;
#141 = SECURITY_CLASSIFICATION_LEVEL ( 'unclassified' ) ;
#142 = ORIENTED_EDGE ( 'NONE', *, *, #277, .T. ) ;
#143 = DIRECTION ( 'NONE',  ( 0.0000000000000000000, 0.0000000000000000000, 1.000000000000000000 ) ) ;
#144 = ADVANCED_FACE ( 'NONE', ( #169 ), #87, .T. ) ;
#145 = DIRECTION ( 'NONE',  ( -1.000000000000000000, -0.0000000000000000000, -0.0000000000000000000 ) ) ;
#146 = CIRCLE ( 'NONE', #1, 6.349999999999999600 ) ;
#147 = EDGE_LOOP ( 'NONE', ( #129, #187, #272, #179 ) ) ;
#148 = CARTESIAN_POINT ( 'NONE',  ( -1.400000000000002400, 0.0000000000000000000, 6.349999999999999600 ) ) ;
#149 = ORIENTED_EDGE ( 'NONE', *, *, #291, .F. ) ;
#150 = PERSON_AND_ORGANIZATION ( #31, #262 ) ;
#151 = CIRCLE ( 'NONE', #106, 13.80000000000000200 ) ;
#152 = CALENDAR_DATE ( 2015, 29, 5 ) ;
#153 = FACE_OUTER_BOUND ( 'NONE', #74, .T. ) ;
#154 = CALENDAR_DATE ( 2015, 29, 5 ) ;
#155 = AXIS2_PLACEMENT_3D ( 'NONE', #63, #227, #34 ) ;
#156 = FACE_OUTER_BOUND ( 'NONE', #123, .T. ) ;
#157 = LINE ( 'NONE', #83, #295 ) ;
#158 = EDGE_CURVE ( 'NONE', #125, #267, #203, .T. ) ;
#159 = APPROVAL_PERSON_ORGANIZATION ( #80, #70, #65 ) ;
#160 = EDGE_CURVE ( 'NONE', #267, #126, #102, .T. ) ;
#161 = DATE_AND_TIME ( #90, #136 ) ;
#162 = DIRECTION ( 'NONE',  ( -0.8524815459514488700, 6.401930765588606800E-017, -0.5227573182770640600 ) ) ;
#163 = DATE_TIME_ROLE ( 'creation_date' ) ;
#164 = DATE_AND_TIME ( #128, #270 ) ;
#165 = PERSON_AND_ORGANIZATION_ROLE ( 'classification_officer' ) ;
#166 = COORDINATED_UNIVERSAL_TIME_OFFSET ( 5, 0, .BEHIND. ) ;
#167 = AXIS2_PLACEMENT_3D ( 'NONE', #91, #197, #168 ) ;
#168 = DIRECTION ( 'NONE',  ( 0.0000000000000000000, 0.0000000000000000000, 1.000000000000000000 ) ) ;
#169 = FACE_OUTER_BOUND ( 'NONE', #147, .T. ) ;
#170 = CC_DESIGN_PERSON_AND_ORGANIZATION_ASSIGNMENT ( #96, #17, ( #206 ) ) ;
#171 = APPROVAL_PERSON_ORGANIZATION ( #259, #100, #293 ) ;
#172 = CARTESIAN_POINT ( 'NONE',  ( -12.14969068484646500, 1.131523446801874000E-017, -0.09239590121737015200 ) ) ;
#173 = FACE_OUTER_BOUND ( 'NONE', #94, .T. ) ;
#174 = DIRECTION ( 'NONE',  ( 0.0000000000000000000, 0.0000000000000000000, 1.000000000000000000 ) ) ;
#175 = ORIENTED_EDGE ( 'NONE', *, *, #78, .T. ) ;
#176 = EDGE_LOOP ( 'NONE', ( #280, #175 ) ) ;
#177 = ORIENTED_EDGE ( 'NONE', *, *, #160, .F. ) ;
#178 = PERSON_AND_ORGANIZATION ( #31, #262 ) ;
#179 = ORIENTED_EDGE ( 'NONE', *, *, #158, .F. ) ;
#180 = DIRECTION ( 'NONE',  ( 0.7071067811865463500, 0.0000000000000000000, -0.7071067811865487900 ) ) ;
#181 = AXIS2_PLACEMENT_3D ( 'NONE', #261, #133, #198 ) ;
#182 = CC_DESIGN_PERSON_AND_ORGANIZATION_ASSIGNMENT ( #98, #11, ( #36 ) ) ;
#183 = EDGE_CURVE ( 'NONE', #275, #188, #53, .T. ) ;
#184 = CARTESIAN_POINT ( 'NONE',  ( -12.14969068484646500, 0.0000000000000000000, 0.09239590121737015200 ) ) ;
#185 = MECHANICAL_CONTEXT ( 'NONE', #51, 'mechanical' ) ;
#186 = ADVANCED_FACE ( 'NONE', ( #95 ), #93, .T. ) ;
#187 = ORIENTED_EDGE ( 'NONE', *, *, #183, .T. ) ;
#188 = VERTEX_POINT ( 'NONE', #25 ) ;
#189 = AXIS2_PLACEMENT_3D ( 'NONE', #131, #257, #230 ) ;
#190 = DIRECTION ( 'NONE',  ( 1.000000000000000000, 0.0000000000000000000, 0.0000000000000000000 ) ) ;
#191 =( GEOMETRIC_REPRESENTATION_CONTEXT ( 3 ) GLOBAL_UNCERTAINTY_ASSIGNED_CONTEXT ( ( #23 ) ) GLOBAL_UNIT_ASSIGNED_CONTEXT ( ( #287, #284, #290 ) ) REPRESENTATION_CONTEXT ( 'NONE', 'WORKASPACE' ) );
#192 = PERSON_AND_ORGANIZATION ( #31, #262 ) ;
#193 = APPLICATION_PROTOCOL_DEFINITION ( 'international standard', 'config_control_design', 1994, #51 ) ;
#194 = DIRECTION ( 'NONE',  ( 0.0000000000000000000, 0.0000000000000000000, 1.000000000000000000 ) ) ;
#195 = DIRECTION ( 'NONE',  ( 0.7071067811865463500, 8.659560562354950100E-017, 0.7071067811865487900 ) ) ;
#196 = APPROVAL_ROLE ( '' ) ;
#197 = DIRECTION ( 'NONE',  ( 1.000000000000000000, 0.0000000000000000000, 0.0000000000000000000 ) ) ;
#198 = DIRECTION ( 'NONE',  ( 0.0000000000000000000, 0.0000000000000000000, 1.000000000000000000 ) ) ;
#199 = ORIENTED_EDGE ( 'NONE', *, *, #277, .F. ) ;
#200 = DIRECTION ( 'NONE',  ( -0.0000000000000000000, 1.000000000000000000, 1.224646799147353200E-016 ) ) ;
#201 = SECURITY_CLASSIFICATION ( '', '', #141 ) ;
#202 = LOCAL_TIME ( 10, 19, 37.00000000000000000, #166 ) ;
#203 = LINE ( 'NONE', #286, #204 ) ;
#204 = VECTOR ( 'NONE', #5, 1000.000000000000100 ) ;
#205 = ORIENTED_EDGE ( 'NONE', *, *, #139, .F. ) ;
#206 = PRODUCT_DEFINITION_FORMATION_WITH_SPECIFIED_SOURCE ( 'ANY', '', #38, .NOT_KNOWN. ) ;
#207 = CC_DESIGN_SECURITY_CLASSIFICATION ( #201, ( #206 ) ) ;
#208 = ORIENTED_EDGE ( 'NONE', *, *, #86, .T. ) ;
#209 = PERSON_AND_ORGANIZATION_ROLE ( 'creator' ) ;
#210 = CIRCLE ( 'NONE', #43, 6.129379653783128200 ) ;
#211 = CARTESIAN_POINT ( 'NONE',  ( 0.2597745401846721100, 0.0000000000000000000, 0.0000000000000000000 ) ) ;
#212 = LINE ( 'NONE', #44, #42 ) ;
#213 = CYLINDRICAL_SURFACE ( 'NONE', #241, 6.349999999999999600 ) ;
#214 = CC_DESIGN_DATE_AND_TIME_ASSIGNMENT ( #161, #163, ( #36 ) ) ;
#215 = EDGE_LOOP ( 'NONE', ( #205, #9, #41, #142 ) ) ;
#216 = VERTEX_POINT ( 'NONE', #99 ) ;
#217 = DIRECTION ( 'NONE',  ( 0.0000000000000000000, 0.0000000000000000000, -1.000000000000000000 ) ) ;
#218 = COORDINATED_UNIVERSAL_TIME_OFFSET ( 5, 0, .BEHIND. ) ;
#219 = COORDINATED_UNIVERSAL_TIME_OFFSET ( 5, 0, .BEHIND. ) ;
#220 = CARTESIAN_POINT ( 'NONE',  ( -0.09999999999999592500, 0.0000000000000000000, 6.349999999999999600 ) ) ;
#221 = DATE_AND_TIME ( #152, #202 ) ;
#222 = CARTESIAN_POINT ( 'NONE',  ( -12.14969068484646500, 0.0000000000000000000, 0.0000000000000000000 ) ) ;
#223 = APPLICATION_CONTEXT ( 'configuration controlled 3d designs of mechanical parts and assemblies' ) ;
#224 = ORIENTED_EDGE ( 'NONE', *, *, #8, .F. ) ;
#225 = CARTESIAN_POINT ( 'NONE',  ( -0.09999999999999592500, 7.776507174585692200E-016, -6.349999999999999600 ) ) ;
#226 = DIRECTION ( 'NONE',  ( -1.000000000000000000, -0.0000000000000000000, -0.0000000000000000000 ) ) ;
#227 = DIRECTION ( 'NONE',  ( 1.000000000000000000, 0.0000000000000000000, 0.0000000000000000000 ) ) ;
#228 = EDGE_CURVE ( 'NONE', #260, #216, #6, .T. ) ;
#229 = DIRECTION ( 'NONE',  ( -1.000000000000000000, -0.0000000000000000000, -0.0000000000000000000 ) ) ;
#230 = DIRECTION ( 'NONE',  ( 0.0000000000000000000, 0.0000000000000000000, -1.000000000000000000 ) ) ;
#231 = EDGE_CURVE ( 'NONE', #188, #267, #146, .T. ) ;
#232 = VECTOR ( 'NONE', #13, 1000.000000000000000 ) ;
#233 = APPROVAL ( #249, 'UNSPECIFIED' ) ;
#234 = COORDINATED_UNIVERSAL_TIME_OFFSET ( 5, 0, .BEHIND. ) ;
#235 = VERTEX_POINT ( 'NONE', #37 ) ;
#236 = ADVANCED_FACE ( 'NONE', ( #24 ), #281, .F. ) ;
#237 = DIRECTION ( 'NONE',  ( 1.000000000000000000, 0.0000000000000000000, 0.0000000000000000000 ) ) ;
#238 = EDGE_CURVE ( 'NONE', #275, #125, #59, .T. ) ;
#239 = CC_DESIGN_APPROVAL ( #70, ( #201 ) ) ;
#240 = ORIENTED_EDGE ( 'NONE', *, *, #238, .T. ) ;
#241 = AXIS2_PLACEMENT_3D ( 'NONE', #252, #89, #118 ) ;
#242 = DIRECTION ( 'NONE',  ( 0.0000000000000000000, 0.0000000000000000000, 1.000000000000000000 ) ) ;
#243 = AXIS2_PLACEMENT_3D ( 'NONE', #268, #237, #217 ) ;
#244 = PERSON_AND_ORGANIZATION_ROLE ( 'design_owner' ) ;
#245 = EDGE_CURVE ( 'NONE', #125, #275, #210, .T. ) ;
#246 = AXIS2_PLACEMENT_3D ( 'NONE', #79, #108, #143 ) ;
#247 = CONICAL_SURFACE ( 'NONE', #243, 6.100000000000001400, 0.7853981633974500600 ) ;
#248 = LOCAL_TIME ( 10, 19, 37.00000000000000000, #219 ) ;
#249 = APPROVAL_STATUS ( 'not_yet_approved' ) ;
#250 = TOROIDAL_SURFACE ( 'NONE', #294, 0.09239590121737015200, 13.80000000000000200 ) ;
#251 = LOCAL_TIME ( 10, 19, 37.00000000000000000, #218 ) ;
#252 = CARTESIAN_POINT ( 'NONE',  ( -1.649999999999999900, 0.0000000000000000000, 0.0000000000000000000 ) ) ;
#253 = ORIENTED_EDGE ( 'NONE', *, *, #18, .F. ) ;
#254 = DIRECTION ( 'NONE',  ( 1.000000000000000000, 0.0000000000000000000, 0.0000000000000000000 ) ) ;
#255 = CARTESIAN_POINT ( 'NONE',  ( 0.0000000000000000000, 0.0000000000000000000, 0.0000000000000000000 ) ) ;
#256 = APPROVAL_DATE_TIME ( #221, #233 ) ;
#257 = DIRECTION ( 'NONE',  ( -1.000000000000000000, -0.0000000000000000000, -0.0000000000000000000 ) ) ;
#258 = DATE_AND_TIME ( #119, #248 ) ;
#259 = PERSON_AND_ORGANIZATION ( #31, #262 ) ;
#260 = VERTEX_POINT ( 'NONE', #60 ) ;
#261 = CARTESIAN_POINT ( 'NONE',  ( -0.09999999999999592500, 0.0000000000000000000, 0.0000000000000000000 ) ) ;
#262 = ORGANIZATION ( 'UNSPECIFIED', 'UNSPECIFIED', '' ) ;
#263 = AXIS2_PLACEMENT_3D ( 'NONE', #222, #226, #174 ) ;
#264 = PRODUCT_DEFINITION_SHAPE ( 'NONE', 'NONE',  #36 ) ;
#265 = APPROVAL_DATE_TIME ( #2, #100 ) ;
#266 = CONICAL_SURFACE ( 'NONE', #246, 6.349999999999999600, 0.5500822159494683800 ) ;
#267 = VERTEX_POINT ( 'NONE', #220 ) ;
#268 = CARTESIAN_POINT ( 'NONE',  ( -1.649999999999999900, 0.0000000000000000000, 0.0000000000000000000 ) ) ;
#269 = DIRECTION ( 'NONE',  ( 0.0000000000000000000, 0.0000000000000000000, -1.000000000000000000 ) ) ;
#270 = LOCAL_TIME ( 10, 19, 37.00000000000000000, #112 ) ;
#271 = DIRECTION ( 'NONE',  ( -1.000000000000000000, -0.0000000000000000000, -0.0000000000000000000 ) ) ;
#272 = ORIENTED_EDGE ( 'NONE', *, *, #86, .F. ) ;
#273 = CARTESIAN_POINT ( 'NONE',  ( -1.649999999999999900, 0.0000000000000000000, 0.0000000000000000000 ) ) ;
#274 = DIRECTION ( 'NONE',  ( 0.0000000000000000000, 0.0000000000000000000, 1.000000000000000000 ) ) ;
#275 = VERTEX_POINT ( 'NONE', #298 ) ;
#276 = CARTESIAN_POINT ( 'NONE',  ( -0.09999999999999592500, 0.0000000000000000000, 0.0000000000000000000 ) ) ;
#277 = EDGE_CURVE ( 'NONE', #126, #216, #115, .T. ) ;
#278 = APPROVAL_STATUS ( 'not_yet_approved' ) ;
#279 = AXIS2_PLACEMENT_3D ( 'NONE', #255, #194, #254 ) ;
#280 = ORIENTED_EDGE ( 'NONE', *, *, #291, .T. ) ;
#281 = PLANE ( 'NONE',  #57 ) ;
#282 = PERSON_AND_ORGANIZATION ( #31, #262 ) ;
#283 = AXIS2_PLACEMENT_3D ( 'NONE', #184, #111, #85 ) ;
#284 =( NAMED_UNIT ( * ) PLANE_ANGLE_UNIT ( ) SI_UNIT ( $, .RADIAN. ) );
#285 = ORIENTED_EDGE ( 'NONE', *, *, #245, .T. ) ;
#286 = CARTESIAN_POINT ( 'NONE',  ( -0.09999999999999592500, 0.0000000000000000000, 6.349999999999999600 ) ) ;
#287 =( LENGTH_UNIT ( ) NAMED_UNIT ( * ) SI_UNIT ( .MILLI., .METRE. ) );
#288 = AXIS2_PLACEMENT_3D ( 'NONE', #73, #229, #121 ) ;
#289 = ADVANCED_FACE ( 'NONE', ( #292 ), #247, .T. ) ;
#290 =( NAMED_UNIT ( * ) SI_UNIT ( $, .STERADIAN. ) SOLID_ANGLE_UNIT ( ) );
#291 = EDGE_CURVE ( 'NONE', #260, #235, #296, .T. ) ;
#292 = FACE_OUTER_BOUND ( 'NONE', #26, .T. ) ;
#293 = APPROVAL_ROLE ( '' ) ;
#294 = AXIS2_PLACEMENT_3D ( 'NONE', #114, #4, #104 ) ;
#295 = VECTOR ( 'NONE', #195, 1000.000000000000000 ) ;
#296 = CIRCLE ( 'NONE', #52, 6.100000000000001400 ) ;
#297 = FACE_OUTER_BOUND ( 'NONE', #21, .T. ) ;
#298 = CARTESIAN_POINT ( 'NONE',  ( 0.2597745401846730000, 7.506325173764421700E-016, -6.129379653783130000 ) ) ;
#299 = EDGE_LOOP ( 'NONE', ( #208, #75, #84, #177 ) ) ;
#300 = CC_DESIGN_PERSON_AND_ORGANIZATION_ASSIGNMENT ( #282, #165, ( #201 ) ) ;
#301 = CIRCLE ( 'NONE', #288, 6.349999999999999600 ) ;
ENDSEC;
END-ISO-10303-21;
