ISO-10303-21;
HEADER;
FILE_DESCRIPTION (( 'STEP AP203' ),
    '1' );
FILE_NAME ('Web Model 49580_49580.step',
    '2019-04-23T14:10:40',
    ( '' ),
    ( '' ),
    'SwSTEP 2.0',
    'SolidWorks 2018',
    '' );
FILE_SCHEMA (( 'CONFIG_CONTROL_DESIGN' ));
ENDSEC;

DATA;
#1 = CARTESIAN_POINT ( 'NONE',  ( -12.50000000000000000, -12.50000000000000000, 3.000000000000000000 ) ) ;
#2 = CC_DESIGN_PERSON_AND_ORGANIZATION_ASSIGNMENT ( #153, #208, ( #78 ) ) ;
#3 = DIRECTION ( 'NONE',  ( 0.0000000000000000000, -1.000000000000000000, 0.0000000000000000000 ) ) ;
#4 = DIRECTION ( 'NONE',  ( 0.0000000000000000000, 1.000000000000000000, 0.0000000000000000000 ) ) ;
#5 = CARTESIAN_POINT ( 'NONE',  ( 12.50000000000000000, -12.50000000000000000, 0.0000000000000000000 ) ) ;
#6 = ORIENTED_EDGE ( 'NONE', *, *, #150, .F. ) ;
#7 = SECURITY_CLASSIFICATION_LEVEL ( 'unclassified' ) ;
#8 = DATE_TIME_ROLE ( 'creation_date' ) ;
#9 = DATE_AND_TIME ( #182, #55 ) ;
#10 = ORIENTED_EDGE ( 'NONE', *, *, #210, .T. ) ;
#11 = SHAPE_DEFINITION_REPRESENTATION ( #125, #176 ) ;
#12 = CC_DESIGN_DATE_AND_TIME_ASSIGNMENT ( #36, #207, ( #141 ) ) ;
#13 = COORDINATED_UNIVERSAL_TIME_OFFSET ( 5, 0, .BEHIND. ) ;
#14 = MANIFOLD_SOLID_BREP ( 'NONE', #149 ) ;
#15 = PLANE ( 'NONE',  #227 ) ;
#16 = ORIENTED_EDGE ( 'NONE', *, *, #150, .T. ) ;
#17 = DIRECTION ( 'NONE',  ( 0.0000000000000000000, 0.0000000000000000000, -1.000000000000000000 ) ) ;
#18 = DIRECTION ( 'NONE',  ( -1.000000000000000000, 0.0000000000000000000, 0.0000000000000000000 ) ) ;
#19 = EDGE_CURVE ( 'NONE', #190, #178, #48, .T. ) ;
#20 =( LENGTH_UNIT ( ) NAMED_UNIT ( * ) SI_UNIT ( .MILLI., .METRE. ) );
#21 = CARTESIAN_POINT ( 'NONE',  ( -12.50000000000000000, -12.50000000000000000, 0.0000000000000000000 ) ) ;
#22 = PERSON_AND_ORGANIZATION ( #143, #58 ) ;
#23 = CARTESIAN_POINT ( 'NONE',  ( 0.0000000000000000000, 0.0000000000000000000, 0.0000000000000000000 ) ) ;
#24 = ORIENTED_EDGE ( 'NONE', *, *, #196, .T. ) ;
#25 = PRODUCT_DEFINITION ( 'UNKNOWN', '', #78, #77 ) ;
#26 = PERSON_AND_ORGANIZATION ( #143, #58 ) ;
#27 = ORIENTED_EDGE ( 'NONE', *, *, #124, .T. ) ;
#28 = DATE_AND_TIME ( #197, #75 ) ;
#29 = PERSON_AND_ORGANIZATION ( #143, #58 ) ;
#30 = VECTOR ( 'NONE', #219, 1000.000000000000000 ) ;
#31 = DIRECTION ( 'NONE',  ( 0.0000000000000000000, 0.0000000000000000000, 1.000000000000000000 ) ) ;
#32 = DIRECTION ( 'NONE',  ( 1.000000000000000000, 0.0000000000000000000, 0.0000000000000000000 ) ) ;
#33 = CARTESIAN_POINT ( 'NONE',  ( 12.50000000000000000, -12.50000000000000000, 3.000000000000000000 ) ) ;
#34 = EDGE_LOOP ( 'NONE', ( #50, #233, #97, #6 ) ) ;
#35 = CARTESIAN_POINT ( 'NONE',  ( -12.50000000000000000, 12.50000000000000000, 3.000000000000000000 ) ) ;
#36 = DATE_AND_TIME ( #171, #142 ) ;
#37 =( NAMED_UNIT ( * ) PLANE_ANGLE_UNIT ( ) SI_UNIT ( $, .RADIAN. ) );
#38 = LINE ( 'NONE', #84, #204 ) ;
#39 = FACE_OUTER_BOUND ( 'NONE', #145, .T. ) ;
#40 = APPLICATION_CONTEXT ( 'configuration controlled 3d designs of mechanical parts and assemblies' ) ;
#41 = LOCAL_TIME ( 10, 10, 40.00000000000000000, #212 ) ;
#42 = APPLICATION_PROTOCOL_DEFINITION ( 'international standard', 'config_control_design', 1994, #40 ) ;
#43 = APPLICATION_PROTOCOL_DEFINITION ( 'international standard', 'config_control_design', 1994, #118 ) ;
#44 = PRODUCT ( 'Web Model 49580_49580', 'Web Model 49580_49580', '', ( #123 ) ) ;
#45 = COORDINATED_UNIVERSAL_TIME_OFFSET ( 5, 0, .BEHIND. ) ;
#46 = AXIS2_PLACEMENT_3D ( 'NONE', #23, #107, #3 ) ;
#47 = PERSON_AND_ORGANIZATION ( #143, #58 ) ;
#48 = LINE ( 'NONE', #81, #30 ) ;
#49 = DIRECTION ( 'NONE',  ( 1.000000000000000000, 0.0000000000000000000, 0.0000000000000000000 ) ) ;
#50 = ORIENTED_EDGE ( 'NONE', *, *, #88, .F. ) ;
#51 = CC_DESIGN_DATE_AND_TIME_ASSIGNMENT ( #70, #8, ( #25 ) ) ;
#52 = DIRECTION ( 'NONE',  ( 0.0000000000000000000, 1.000000000000000000, 0.0000000000000000000 ) ) ;
#53 = ADVANCED_FACE ( 'NONE', ( #39 ), #83, .F. ) ;
#54 = DIRECTION ( 'NONE',  ( -1.000000000000000000, 0.0000000000000000000, 0.0000000000000000000 ) ) ;
#55 = LOCAL_TIME ( 10, 10, 40.00000000000000000, #13 ) ;
#56 = CARTESIAN_POINT ( 'NONE',  ( -12.50000000000000000, -12.50000000000000000, 3.000000000000000000 ) ) ;
#57 = VERTEX_POINT ( 'NONE', #68 ) ;
#58 = ORGANIZATION ( 'UNSPECIFIED', 'UNSPECIFIED', '' ) ;
#59 = VERTEX_POINT ( 'NONE', #195 ) ;
#60 = DIRECTION ( 'NONE',  ( 1.000000000000000000, 0.0000000000000000000, 0.0000000000000000000 ) ) ;
#61 = LINE ( 'NONE', #69, #225 ) ;
#62 = VECTOR ( 'NONE', #49, 1000.000000000000000 ) ;
#63 = ORIENTED_EDGE ( 'NONE', *, *, #138, .T. ) ;
#64 = PERSON_AND_ORGANIZATION_ROLE ( 'design_owner' ) ;
#65 = FACE_OUTER_BOUND ( 'NONE', #34, .T. ) ;
#66 = LINE ( 'NONE', #156, #214 ) ;
#67 = ORIENTED_EDGE ( 'NONE', *, *, #117, .T. ) ;
#68 = CARTESIAN_POINT ( 'NONE',  ( 12.50000000000000000, 12.50000000000000000, 3.000000000000000000 ) ) ;
#69 = CARTESIAN_POINT ( 'NONE',  ( -12.50000000000000000, 12.50000000000000000, 0.0000000000000000000 ) ) ;
#70 = DATE_AND_TIME ( #221, #181 ) ;
#71 = DIRECTION ( 'NONE',  ( 1.000000000000000000, 0.0000000000000000000, 0.0000000000000000000 ) ) ;
#72 = CARTESIAN_POINT ( 'NONE',  ( 12.50000000000000000, 12.50000000000000000, 3.000000000000000000 ) ) ;
#73 = APPROVAL_DATE_TIME ( #9, #122 ) ;
#74 = CC_DESIGN_PERSON_AND_ORGANIZATION_ASSIGNMENT ( #192, #229, ( #78 ) ) ;
#75 = LOCAL_TIME ( 10, 10, 40.00000000000000000, #45 ) ;
#76 = VERTEX_POINT ( 'NONE', #167 ) ;
#77 = DESIGN_CONTEXT ( 'detailed design', #40, 'design' ) ;
#78 = PRODUCT_DEFINITION_FORMATION_WITH_SPECIFIED_SOURCE ( 'ANY', '', #44, .NOT_KNOWN. ) ;
#79 = ORIENTED_EDGE ( 'NONE', *, *, #88, .T. ) ;
#80 = VECTOR ( 'NONE', #202, 1000.000000000000000 ) ;
#81 = CARTESIAN_POINT ( 'NONE',  ( 12.50000000000000000, -12.50000000000000000, 3.000000000000000000 ) ) ;
#82 = ORIENTED_EDGE ( 'NONE', *, *, #179, .T. ) ;
#83 = PLANE ( 'NONE',  #168 ) ;
#84 = CARTESIAN_POINT ( 'NONE',  ( -12.50000000000000000, -12.50000000000000000, 3.000000000000000000 ) ) ;
#85 = CC_DESIGN_PERSON_AND_ORGANIZATION_ASSIGNMENT ( #47, #188, ( #141 ) ) ;
#86 = ORIENTED_EDGE ( 'NONE', *, *, #111, .F. ) ;
#87 = CARTESIAN_POINT ( 'NONE',  ( 12.50000000000000000, 12.50000000000000000, 0.0000000000000000000 ) ) ;
#88 = EDGE_CURVE ( 'NONE', #178, #146, #177, .T. ) ;
#89 = DIRECTION ( 'NONE',  ( 0.0000000000000000000, 0.0000000000000000000, 1.000000000000000000 ) ) ;
#90 = EDGE_LOOP ( 'NONE', ( #16, #139, #193, #10 ) ) ;
#91 = CARTESIAN_POINT ( 'NONE',  ( -12.50000000000000000, -12.50000000000000000, 3.000000000000000000 ) ) ;
#92 = CC_DESIGN_APPROVAL ( #116, ( #141 ) ) ;
#93 = ORIENTED_EDGE ( 'NONE', *, *, #165, .F. ) ;
#94 = FACE_OUTER_BOUND ( 'NONE', #104, .T. ) ;
#95 = ORIENTED_EDGE ( 'NONE', *, *, #98, .F. ) ;
#96 = APPROVAL_DATE_TIME ( #134, #116 ) ;
#97 = ORIENTED_EDGE ( 'NONE', *, *, #196, .F. ) ;
#98 = EDGE_CURVE ( 'NONE', #190, #57, #119, .T. ) ;
#99 = COORDINATED_UNIVERSAL_TIME_OFFSET ( 5, 0, .BEHIND. ) ;
#100 = EDGE_LOOP ( 'NONE', ( #187, #82, #216, #67 ) ) ;
#101 = AXIS2_PLACEMENT_3D ( 'NONE', #110, #89, #60 ) ;
#102 = FACE_OUTER_BOUND ( 'NONE', #90, .T. ) ;
#103 = CARTESIAN_POINT ( 'NONE',  ( -12.50000000000000000, -12.50000000000000000, 3.000000000000000000 ) ) ;
#104 = EDGE_LOOP ( 'NONE', ( #79, #121, #95, #236 ) ) ;
#105 = DIRECTION ( 'NONE',  ( -0.0000000000000000000, 1.000000000000000000, 0.0000000000000000000 ) ) ;
#106 = CARTESIAN_POINT ( 'NONE',  ( 12.50000000000000000, -12.50000000000000000, 3.000000000000000000 ) ) ;
#107 = DIRECTION ( 'NONE',  ( 0.0000000000000000000, 0.0000000000000000000, -1.000000000000000000 ) ) ;
#108 = APPROVAL_DATE_TIME ( #28, #161 ) ;
#109 = CARTESIAN_POINT ( 'NONE',  ( 0.0000000000000000000, 0.0000000000000000000, 3.000000000000000000 ) ) ;
#110 = CARTESIAN_POINT ( 'NONE',  ( 0.0000000000000000000, 0.0000000000000000000, 0.0000000000000000000 ) ) ;
#111 = EDGE_CURVE ( 'NONE', #76, #59, #232, .T. ) ;
#112 = ADVANCED_FACE ( 'NONE', ( #94 ), #15, .F. ) ;
#113 = PLANE ( 'NONE',  #191 ) ;
#114 = PERSON_AND_ORGANIZATION ( #143, #58 ) ;
#115 = APPROVAL_ROLE ( '' ) ;
#116 = APPROVAL ( #234, 'UNSPECIFIED' ) ;
#117 = EDGE_CURVE ( 'NONE', #59, #190, #38, .T. ) ;
#118 = APPLICATION_CONTEXT ( 'configuration controlled 3d designs of mechanical parts and assemblies' ) ;
#119 = LINE ( 'NONE', #33, #169 ) ;
#120 = LINE ( 'NONE', #151, #203 ) ;
#121 = ORIENTED_EDGE ( 'NONE', *, *, #210, .F. ) ;
#122 = APPROVAL ( #162, 'UNSPECIFIED' ) ;
#123 = MECHANICAL_CONTEXT ( 'NONE', #118, 'mechanical' ) ;
#124 = EDGE_CURVE ( 'NONE', #76, #136, #120, .T. ) ;
#125 = PRODUCT_DEFINITION_SHAPE ( 'NONE', 'NONE',  #25 ) ;
#126 = VECTOR ( 'NONE', #226, 1000.000000000000000 ) ;
#127 =( GEOMETRIC_REPRESENTATION_CONTEXT ( 3 ) GLOBAL_UNCERTAINTY_ASSIGNED_CONTEXT ( ( #217 ) ) GLOBAL_UNIT_ASSIGNED_CONTEXT ( ( #20, #37, #160 ) ) REPRESENTATION_CONTEXT ( 'NONE', 'WORKASPACE' ) );
#128 = COORDINATED_UNIVERSAL_TIME_OFFSET ( 5, 0, .BEHIND. ) ;
#129 = APPROVAL_PERSON_ORGANIZATION ( #26, #122, #115 ) ;
#130 = DIRECTION ( 'NONE',  ( 0.0000000000000000000, 1.000000000000000000, 0.0000000000000000000 ) ) ;
#131 = CC_DESIGN_PERSON_AND_ORGANIZATION_ASSIGNMENT ( #29, #64, ( #44 ) ) ;
#132 = FACE_OUTER_BOUND ( 'NONE', #100, .T. ) ;
#133 = DIRECTION ( 'NONE',  ( 0.0000000000000000000, -1.000000000000000000, 0.0000000000000000000 ) ) ;
#134 = DATE_AND_TIME ( #231, #41 ) ;
#135 = LINE ( 'NONE', #72, #172 ) ;
#136 = VERTEX_POINT ( 'NONE', #148 ) ;
#137 = PLANE ( 'NONE',  #46 ) ;
#138 = EDGE_CURVE ( 'NONE', #159, #178, #157, .T. ) ;
#139 = ORIENTED_EDGE ( 'NONE', *, *, #124, .F. ) ;
#140 = APPROVAL_ROLE ( '' ) ;
#141 = SECURITY_CLASSIFICATION ( '', '', #7 ) ;
#142 = LOCAL_TIME ( 10, 10, 40.00000000000000000, #128 ) ;
#143 = PERSON ( 'UNSPECIFIED', 'UNSPECIFIED', 'UNSPECIFIED', ('UNSPECIFIED'), ('UNSPECIFIED'), ('UNSPECIFIED') ) ;
#144 = LINE ( 'NONE', #21, #80 ) ;
#145 = EDGE_LOOP ( 'NONE', ( #63, #205, #147, #235 ) ) ;
#146 = VERTEX_POINT ( 'NONE', #87 ) ;
#147 = ORIENTED_EDGE ( 'NONE', *, *, #117, .F. ) ;
#148 = CARTESIAN_POINT ( 'NONE',  ( -12.50000000000000000, 12.50000000000000000, 0.0000000000000000000 ) ) ;
#149 = CLOSED_SHELL ( 'NONE', ( #112, #155, #173, #53, #175, #218 ) ) ;
#150 = EDGE_CURVE ( 'NONE', #146, #136, #61, .T. ) ;
#151 = CARTESIAN_POINT ( 'NONE',  ( -12.50000000000000000, 12.50000000000000000, 3.000000000000000000 ) ) ;
#152 = CC_DESIGN_SECURITY_CLASSIFICATION ( #141, ( #78 ) ) ;
#153 = PERSON_AND_ORGANIZATION ( #143, #58 ) ;
#154 = PLANE ( 'NONE',  #230 ) ;
#155 = ADVANCED_FACE ( 'NONE', ( #102 ), #201, .F. ) ;
#156 = CARTESIAN_POINT ( 'NONE',  ( -12.50000000000000000, 12.50000000000000000, 3.000000000000000000 ) ) ;
#157 = LINE ( 'NONE', #199, #62 ) ;
#158 = APPROVAL_ROLE ( '' ) ;
#159 = VERTEX_POINT ( 'NONE', #185 ) ;
#160 =( NAMED_UNIT ( * ) SI_UNIT ( $, .STERADIAN. ) SOLID_ANGLE_UNIT ( ) );
#161 = APPROVAL ( #228, 'UNSPECIFIED' ) ;
#162 = APPROVAL_STATUS ( 'not_yet_approved' ) ;
#163 = VECTOR ( 'NONE', #52, 1000.000000000000000 ) ;
#164 = EDGE_LOOP ( 'NONE', ( #24, #93, #86, #27 ) ) ;
#165 = EDGE_CURVE ( 'NONE', #59, #159, #186, .T. ) ;
#166 = APPROVAL_PERSON_ORGANIZATION ( #114, #161, #158 ) ;
#167 = CARTESIAN_POINT ( 'NONE',  ( -12.50000000000000000, 12.50000000000000000, 3.000000000000000000 ) ) ;
#168 = AXIS2_PLACEMENT_3D ( 'NONE', #1, #105, #215 ) ;
#169 = VECTOR ( 'NONE', #130, 1000.000000000000000 ) ;
#170 = DIRECTION ( 'NONE',  ( 0.0000000000000000000, -1.000000000000000000, 0.0000000000000000000 ) ) ;
#171 = CALENDAR_DATE ( 2019, 23, 4 ) ;
#172 = VECTOR ( 'NONE', #224, 1000.000000000000000 ) ;
#173 = ADVANCED_FACE ( 'NONE', ( #213 ), #154, .F. ) ;
#174 = DIRECTION ( 'NONE',  ( 0.0000000000000000000, 0.0000000000000000000, -1.000000000000000000 ) ) ;
#175 = ADVANCED_FACE ( 'NONE', ( #132 ), #113, .F. ) ;
#176 = ADVANCED_BREP_SHAPE_REPRESENTATION ( 'Web Model 49580_49580', ( #14, #101 ), #127 ) ;
#177 = LINE ( 'NONE', #237, #163 ) ;
#178 = VERTEX_POINT ( 'NONE', #5 ) ;
#179 = EDGE_CURVE ( 'NONE', #57, #76, #66, .T. ) ;
#180 = PERSON_AND_ORGANIZATION_ROLE ( 'creator' ) ;
#181 = LOCAL_TIME ( 10, 10, 40.00000000000000000, #99 ) ;
#182 = CALENDAR_DATE ( 2019, 23, 4 ) ;
#183 = PERSON_AND_ORGANIZATION ( #143, #58 ) ;
#184 = VECTOR ( 'NONE', #198, 1000.000000000000000 ) ;
#185 = CARTESIAN_POINT ( 'NONE',  ( -12.50000000000000000, -12.50000000000000000, 0.0000000000000000000 ) ) ;
#186 = LINE ( 'NONE', #91, #126 ) ;
#187 = ORIENTED_EDGE ( 'NONE', *, *, #98, .T. ) ;
#188 = PERSON_AND_ORGANIZATION_ROLE ( 'classification_officer' ) ;
#189 = APPROVAL_PERSON_ORGANIZATION ( #183, #116, #140 ) ;
#190 = VERTEX_POINT ( 'NONE', #223 ) ;
#191 = AXIS2_PLACEMENT_3D ( 'NONE', #109, #222, #170 ) ;
#192 = PERSON_AND_ORGANIZATION ( #143, #58 ) ;
#193 = ORIENTED_EDGE ( 'NONE', *, *, #179, .F. ) ;
#194 = DIRECTION ( 'NONE',  ( -1.000000000000000000, 0.0000000000000000000, 0.0000000000000000000 ) ) ;
#195 = CARTESIAN_POINT ( 'NONE',  ( -12.50000000000000000, -12.50000000000000000, 3.000000000000000000 ) ) ;
#196 = EDGE_CURVE ( 'NONE', #136, #159, #144, .T. ) ;
#197 = CALENDAR_DATE ( 2019, 23, 4 ) ;
#198 = DIRECTION ( 'NONE',  ( 0.0000000000000000000, -1.000000000000000000, 0.0000000000000000000 ) ) ;
#199 = CARTESIAN_POINT ( 'NONE',  ( -12.50000000000000000, -12.50000000000000000, 0.0000000000000000000 ) ) ;
#200 = CC_DESIGN_PERSON_AND_ORGANIZATION_ASSIGNMENT ( #22, #180, ( #25 ) ) ;
#201 = PLANE ( 'NONE',  #220 ) ;
#202 = DIRECTION ( 'NONE',  ( 0.0000000000000000000, -1.000000000000000000, 0.0000000000000000000 ) ) ;
#203 = VECTOR ( 'NONE', #17, 1000.000000000000000 ) ;
#204 = VECTOR ( 'NONE', #32, 1000.000000000000000 ) ;
#205 = ORIENTED_EDGE ( 'NONE', *, *, #19, .F. ) ;
#206 = CC_DESIGN_APPROVAL ( #161, ( #25 ) ) ;
#207 = DATE_TIME_ROLE ( 'classification_date' ) ;
#208 = PERSON_AND_ORGANIZATION_ROLE ( 'design_supplier' ) ;
#209 = PRODUCT_RELATED_PRODUCT_CATEGORY ( 'detail', '', ( #44 ) ) ;
#210 = EDGE_CURVE ( 'NONE', #57, #146, #135, .T. ) ;
#211 = CC_DESIGN_APPROVAL ( #122, ( #78 ) ) ;
#212 = COORDINATED_UNIVERSAL_TIME_OFFSET ( 5, 0, .BEHIND. ) ;
#213 = FACE_OUTER_BOUND ( 'NONE', #164, .T. ) ;
#214 = VECTOR ( 'NONE', #54, 1000.000000000000000 ) ;
#215 = DIRECTION ( 'NONE',  ( 1.000000000000000000, 0.0000000000000000000, 0.0000000000000000000 ) ) ;
#216 = ORIENTED_EDGE ( 'NONE', *, *, #111, .T. ) ;
#217 = UNCERTAINTY_MEASURE_WITH_UNIT (LENGTH_MEASURE( 1.000000000000000082E-05 ), #20, 'distance_accuracy_value', 'NONE');
#218 = ADVANCED_FACE ( 'NONE', ( #65 ), #137, .T. ) ;
#219 = DIRECTION ( 'NONE',  ( 0.0000000000000000000, 0.0000000000000000000, -1.000000000000000000 ) ) ;
#220 = AXIS2_PLACEMENT_3D ( 'NONE', #35, #133, #174 ) ;
#221 = CALENDAR_DATE ( 2019, 23, 4 ) ;
#222 = DIRECTION ( 'NONE',  ( 0.0000000000000000000, 0.0000000000000000000, -1.000000000000000000 ) ) ;
#223 = CARTESIAN_POINT ( 'NONE',  ( 12.50000000000000000, -12.50000000000000000, 3.000000000000000000 ) ) ;
#224 = DIRECTION ( 'NONE',  ( 0.0000000000000000000, 0.0000000000000000000, -1.000000000000000000 ) ) ;
#225 = VECTOR ( 'NONE', #18, 1000.000000000000000 ) ;
#226 = DIRECTION ( 'NONE',  ( 0.0000000000000000000, 0.0000000000000000000, -1.000000000000000000 ) ) ;
#227 = AXIS2_PLACEMENT_3D ( 'NONE', #106, #194, #31 ) ;
#228 = APPROVAL_STATUS ( 'not_yet_approved' ) ;
#229 = PERSON_AND_ORGANIZATION_ROLE ( 'creator' ) ;
#230 = AXIS2_PLACEMENT_3D ( 'NONE', #56, #71, #4 ) ;
#231 = CALENDAR_DATE ( 2019, 23, 4 ) ;
#232 = LINE ( 'NONE', #103, #184 ) ;
#233 = ORIENTED_EDGE ( 'NONE', *, *, #138, .F. ) ;
#234 = APPROVAL_STATUS ( 'not_yet_approved' ) ;
#235 = ORIENTED_EDGE ( 'NONE', *, *, #165, .T. ) ;
#236 = ORIENTED_EDGE ( 'NONE', *, *, #19, .T. ) ;
#237 = CARTESIAN_POINT ( 'NONE',  ( 12.50000000000000000, -12.50000000000000000, 0.0000000000000000000 ) ) ;
ENDSEC;
END-ISO-10303-21;
