ISO-10303-21;
HEADER;
FILE_DESCRIPTION (( 'STEP AP203' ),
    '1' );
FILE_NAME ('Web Model 68424.STEP',
    '2017-01-31T20:02:09',
    ( '' ),
    ( '' ),
    'SwSTEP 2.0',
    'SolidWorks 2016',
    '' );
FILE_SCHEMA (( 'CONFIG_CONTROL_DESIGN' ));
ENDSEC;

DATA;
#1 = DIRECTION ( 'NONE',  ( 1.000000000000000000, 1.387778780781445400E-016, -0.0000000000000000000 ) ) ;
#2 = FACE_OUTER_BOUND ( 'NONE', #144, .T. ) ;
#3 = EDGE_CURVE ( 'NONE', #165, #20, #63, .T. ) ;
#4 = ORIENTED_EDGE ( 'NONE', *, *, #33, .T. ) ;
#5 = CARTESIAN_POINT ( 'NONE',  ( -12.49999999999999500, -12.50000000000000400, 3.000000000000000000 ) ) ;
#6 = ORIENTED_EDGE ( 'NONE', *, *, #203, .T. ) ;
#7 = DIRECTION ( 'NONE',  ( 0.0000000000000000000, 0.0000000000000000000, 1.000000000000000000 ) ) ;
#8 = APPROVAL_DATE_TIME ( #186, #192 ) ;
#9 = DATE_AND_TIME ( #124, #57 ) ;
#10 = ORIENTED_EDGE ( 'NONE', *, *, #236, .F. ) ;
#11 = SHAPE_DEFINITION_REPRESENTATION ( #103, #21 ) ;
#12 = LINE ( 'NONE', #126, #198 ) ;
#13 = APPROVAL_STATUS ( 'not_yet_approved' ) ;
#14 = ADVANCED_FACE ( 'NONE', ( #92 ), #59, .T. ) ;
#15 = APPROVAL ( #159, 'UNSPECIFIED' ) ;
#16 = ORIENTED_EDGE ( 'NONE', *, *, #209, .F. ) ;
#17 = EDGE_CURVE ( 'NONE', #160, #102, #12, .T. ) ;
#18 = DIRECTION ( 'NONE',  ( -1.000000000000000000, -1.387778780781445900E-016, 0.0000000000000000000 ) ) ;
#19 = VECTOR ( 'NONE', #39, 1000.000000000000000 ) ;
#20 = VERTEX_POINT ( 'NONE', #111 ) ;
#21 = ADVANCED_BREP_SHAPE_REPRESENTATION ( 'Web Model 68424', ( #25, #66 ), #30 ) ;
#22 = CARTESIAN_POINT ( 'NONE',  ( 0.0000000000000000000, 0.0000000000000000000, 0.0000000000000000000 ) ) ;
#23 = EDGE_CURVE ( 'NONE', #160, #223, #71, .T. ) ;
#24 = SECURITY_CLASSIFICATION ( '', '', #105 ) ;
#25 = MANIFOLD_SOLID_BREP ( 'Extrude1', #182 ) ;
#26 = ORIENTED_EDGE ( 'NONE', *, *, #203, .F. ) ;
#27 = APPROVAL_ROLE ( '' ) ;
#28 = PERSON_AND_ORGANIZATION_ROLE ( 'classification_officer' ) ;
#29 = CALENDAR_DATE ( 2017, 31, 1 ) ;
#30 =( GEOMETRIC_REPRESENTATION_CONTEXT ( 3 ) GLOBAL_UNCERTAINTY_ASSIGNED_CONTEXT ( ( #213 ) ) GLOBAL_UNIT_ASSIGNED_CONTEXT ( ( #225, #171, #79 ) ) REPRESENTATION_CONTEXT ( 'NONE', 'WORKASPACE' ) );
#31 = COORDINATED_UNIVERSAL_TIME_OFFSET ( 5, 0, .BEHIND. ) ;
#32 = VECTOR ( 'NONE', #45, 1000.000000000000000 ) ;
#33 = EDGE_CURVE ( 'NONE', #223, #230, #208, .T. ) ;
#34 = PRODUCT ( 'Web Model 68424', 'Web Model 68424', '', ( #152 ) ) ;
#35 = AXIS2_PLACEMENT_3D ( 'NONE', #178, #219, #115 ) ;
#36 = CARTESIAN_POINT ( 'NONE',  ( -12.49999999999999500, -12.50000000000000400, 0.0000000000000000000 ) ) ;
#37 = LOCAL_TIME ( 15, 2, 9.000000000000000000, #169 ) ;
#38 = CARTESIAN_POINT ( 'NONE',  ( -12.49999999999999800, 12.49999999999999600, 3.000000000000000000 ) ) ;
#39 = DIRECTION ( 'NONE',  ( 1.000000000000000000, 1.387778780781445700E-016, -0.0000000000000000000 ) ) ;
#40 = CARTESIAN_POINT ( 'NONE',  ( -12.49999999999999500, -12.50000000000000400, 0.0000000000000000000 ) ) ;
#41 = LOCAL_TIME ( 15, 2, 9.000000000000000000, #164 ) ;
#42 = PERSON_AND_ORGANIZATION ( #51, #149 ) ;
#43 = CC_DESIGN_PERSON_AND_ORGANIZATION_ASSIGNMENT ( #130, #28, ( #24 ) ) ;
#44 = ORIENTED_EDGE ( 'NONE', *, *, #121, .T. ) ;
#45 = DIRECTION ( 'NONE',  ( -0.0000000000000000000, -0.0000000000000000000, -1.000000000000000000 ) ) ;
#46 = DIRECTION ( 'NONE',  ( -1.000000000000000000, -4.163336342344336500E-016, 0.0000000000000000000 ) ) ;
#47 = CARTESIAN_POINT ( 'NONE',  ( 12.50000000000000500, -12.50000000000000000, 3.000000000000000000 ) ) ;
#48 = FACE_OUTER_BOUND ( 'NONE', #146, .T. ) ;
#49 = ORIENTED_EDGE ( 'NONE', *, *, #121, .F. ) ;
#50 = AXIS2_PLACEMENT_3D ( 'NONE', #36, #89, #217 ) ;
#51 = PERSON ( 'UNSPECIFIED', 'UNSPECIFIED', 'UNSPECIFIED', ('UNSPECIFIED'), ('UNSPECIFIED'), ('UNSPECIFIED') ) ;
#52 = AXIS2_PLACEMENT_3D ( 'NONE', #147, #188, #93 ) ;
#53 = COORDINATED_UNIVERSAL_TIME_OFFSET ( 5, 0, .BEHIND. ) ;
#54 = EDGE_LOOP ( 'NONE', ( #108, #156, #232, #44 ) ) ;
#55 = ADVANCED_FACE ( 'NONE', ( #48 ), #237, .F. ) ;
#56 = DIRECTION ( 'NONE',  ( -0.0000000000000000000, -0.0000000000000000000, -1.000000000000000000 ) ) ;
#57 = LOCAL_TIME ( 15, 2, 9.000000000000000000, #78 ) ;
#58 = EDGE_LOOP ( 'NONE', ( #6, #150, #16, #158 ) ) ;
#59 = PLANE ( 'NONE',  #50 ) ;
#60 = CARTESIAN_POINT ( 'NONE',  ( 12.49999999999999500, 12.50000000000000000, 3.000000000000000000 ) ) ;
#61 = FACE_OUTER_BOUND ( 'NONE', #58, .T. ) ;
#62 = DIRECTION ( 'NONE',  ( -4.163336342344337000E-016, 1.000000000000000000, -0.0000000000000000000 ) ) ;
#63 = LINE ( 'NONE', #75, #141 ) ;
#64 = CARTESIAN_POINT ( 'NONE',  ( 12.49999999999999500, 12.50000000000000000, 3.000000000000000000 ) ) ;
#65 = APPROVAL_PERSON_ORGANIZATION ( #211, #200, #27 ) ;
#66 = AXIS2_PLACEMENT_3D ( 'NONE', #22, #7, #118 ) ;
#67 = DIRECTION ( 'NONE',  ( -4.163336342344337000E-016, 1.000000000000000000, -0.0000000000000000000 ) ) ;
#68 = DATE_TIME_ROLE ( 'classification_date' ) ;
#69 = PERSON_AND_ORGANIZATION_ROLE ( 'creator' ) ;
#70 = VECTOR ( 'NONE', #62, 1000.000000000000000 ) ;
#71 = LINE ( 'NONE', #38, #114 ) ;
#72 = ORIENTED_EDGE ( 'NONE', *, *, #87, .F. ) ;
#73 = CC_DESIGN_SECURITY_CLASSIFICATION ( #24, ( #191 ) ) ;
#74 = DIRECTION ( 'NONE',  ( -1.000000000000000000, -1.387778780781445900E-016, 0.0000000000000000000 ) ) ;
#75 = CARTESIAN_POINT ( 'NONE',  ( 12.49999999999999500, 12.50000000000000000, 3.000000000000000000 ) ) ;
#76 = CARTESIAN_POINT ( 'NONE',  ( -12.49999999999999500, -12.50000000000000400, 3.000000000000000000 ) ) ;
#77 = CARTESIAN_POINT ( 'NONE',  ( 12.50000000000000500, -12.50000000000000000, 3.000000000000000000 ) ) ;
#78 = COORDINATED_UNIVERSAL_TIME_OFFSET ( 5, 0, .BEHIND. ) ;
#79 =( NAMED_UNIT ( * ) SI_UNIT ( $, .STERADIAN. ) SOLID_ANGLE_UNIT ( ) );
#80 = APPROVAL_PERSON_ORGANIZATION ( #228, #192, #210 ) ;
#81 = LINE ( 'NONE', #76, #162 ) ;
#82 = DATE_TIME_ROLE ( 'creation_date' ) ;
#83 = APPROVAL_ROLE ( '' ) ;
#84 = ORIENTED_EDGE ( 'NONE', *, *, #3, .T. ) ;
#85 = DATE_AND_TIME ( #138, #190 ) ;
#86 = ORIENTED_EDGE ( 'NONE', *, *, #236, .T. ) ;
#87 = EDGE_CURVE ( 'NONE', #165, #160, #204, .T. ) ;
#88 = PRODUCT_RELATED_PRODUCT_CATEGORY ( 'detail', '', ( #34 ) ) ;
#89 = DIRECTION ( 'NONE',  ( 0.0000000000000000000, 0.0000000000000000000, -1.000000000000000000 ) ) ;
#90 = PERSON_AND_ORGANIZATION ( #51, #149 ) ;
#91 = CARTESIAN_POINT ( 'NONE',  ( -12.49999999999999800, 12.49999999999999600, 0.0000000000000000000 ) ) ;
#92 = FACE_OUTER_BOUND ( 'NONE', #176, .T. ) ;
#93 = DIRECTION ( 'NONE',  ( -1.000000000000000000, 0.0000000000000000000, -0.0000000000000000000 ) ) ;
#94 = EDGE_CURVE ( 'NONE', #116, #235, #175, .T. ) ;
#95 = CC_DESIGN_DATE_AND_TIME_ASSIGNMENT ( #85, #82, ( #224 ) ) ;
#96 = DESIGN_CONTEXT ( 'detailed design', #153, 'design' ) ;
#97 = LOCAL_TIME ( 15, 2, 9.000000000000000000, #31 ) ;
#98 = ORIENTED_EDGE ( 'NONE', *, *, #231, .T. ) ;
#99 = DIRECTION ( 'NONE',  ( -1.000000000000000000, -1.387778780781445400E-016, 0.0000000000000000000 ) ) ;
#100 = DIRECTION ( 'NONE',  ( -1.387778780781445400E-016, 1.000000000000000000, 0.0000000000000000000 ) ) ;
#101 = PERSON_AND_ORGANIZATION ( #51, #149 ) ;
#102 = VERTEX_POINT ( 'NONE', #91 ) ;
#103 = PRODUCT_DEFINITION_SHAPE ( 'NONE', 'NONE',  #224 ) ;
#104 = CC_DESIGN_DATE_AND_TIME_ASSIGNMENT ( #180, #68, ( #24 ) ) ;
#105 = SECURITY_CLASSIFICATION_LEVEL ( 'unclassified' ) ;
#106 = ORIENTED_EDGE ( 'NONE', *, *, #209, .T. ) ;
#107 = PERSON_AND_ORGANIZATION_ROLE ( 'design_supplier' ) ;
#108 = ORIENTED_EDGE ( 'NONE', *, *, #94, .T. ) ;
#109 = FACE_OUTER_BOUND ( 'NONE', #136, .T. ) ;
#110 = CC_DESIGN_PERSON_AND_ORGANIZATION_ASSIGNMENT ( #189, #69, ( #191 ) ) ;
#111 = CARTESIAN_POINT ( 'NONE',  ( 12.49999999999999500, 12.50000000000000000, 0.0000000000000000000 ) ) ;
#112 = AXIS2_PLACEMENT_3D ( 'NONE', #47, #100, #99 ) ;
#113 = APPROVAL_DATE_TIME ( #154, #15 ) ;
#114 = VECTOR ( 'NONE', #128, 1000.000000000000000 ) ;
#115 = DIRECTION ( 'NONE',  ( 1.000000000000000000, 1.387778780781445900E-016, 0.0000000000000000000 ) ) ;
#116 = VERTEX_POINT ( 'NONE', #40 ) ;
#117 = CARTESIAN_POINT ( 'NONE',  ( -12.49999999999999800, 12.49999999999999600, 3.000000000000000000 ) ) ;
#118 = DIRECTION ( 'NONE',  ( 1.000000000000000000, 0.0000000000000000000, 0.0000000000000000000 ) ) ;
#119 = LINE ( 'NONE', #77, #32 ) ;
#120 = FACE_OUTER_BOUND ( 'NONE', #54, .T. ) ;
#121 = EDGE_CURVE ( 'NONE', #223, #116, #81, .T. ) ;
#122 = CC_DESIGN_APPROVAL ( #192, ( #24 ) ) ;
#123 = ADVANCED_FACE ( 'NONE', ( #2 ), #199, .F. ) ;
#124 = CALENDAR_DATE ( 2017, 31, 1 ) ;
#125 = ADVANCED_FACE ( 'NONE', ( #120 ), #161, .F. ) ;
#126 = CARTESIAN_POINT ( 'NONE',  ( -12.49999999999999800, 12.49999999999999600, 3.000000000000000000 ) ) ;
#127 = VECTOR ( 'NONE', #67, 1000.000000000000000 ) ;
#128 = DIRECTION ( 'NONE',  ( 1.387778780781445700E-016, -1.000000000000000000, 0.0000000000000000000 ) ) ;
#129 = CARTESIAN_POINT ( 'NONE',  ( 12.50000000000000500, -12.50000000000000000, 3.000000000000000000 ) ) ;
#130 = PERSON_AND_ORGANIZATION ( #51, #149 ) ;
#131 = VECTOR ( 'NONE', #220, 1000.000000000000000 ) ;
#132 = ORIENTED_EDGE ( 'NONE', *, *, #23, .F. ) ;
#133 = APPLICATION_PROTOCOL_DEFINITION ( 'international standard', 'config_control_design', 1994, #153 ) ;
#134 = CARTESIAN_POINT ( 'NONE',  ( 12.49999999999999500, 12.50000000000000000, 0.0000000000000000000 ) ) ;
#135 = PLANE ( 'NONE',  #233 ) ;
#136 = EDGE_LOOP ( 'NONE', ( #139, #4, #106, #193 ) ) ;
#137 = DIRECTION ( 'NONE',  ( 1.387778780781445700E-016, -1.000000000000000000, 0.0000000000000000000 ) ) ;
#138 = CALENDAR_DATE ( 2017, 31, 1 ) ;
#139 = ORIENTED_EDGE ( 'NONE', *, *, #23, .T. ) ;
#140 = PERSON_AND_ORGANIZATION_ROLE ( 'creator' ) ;
#141 = VECTOR ( 'NONE', #183, 1000.000000000000000 ) ;
#142 = CC_DESIGN_PERSON_AND_ORGANIZATION_ASSIGNMENT ( #170, #168, ( #34 ) ) ;
#143 = CALENDAR_DATE ( 2017, 31, 1 ) ;
#144 = EDGE_LOOP ( 'NONE', ( #98, #49, #132, #187 ) ) ;
#145 = CARTESIAN_POINT ( 'NONE',  ( 12.50000000000000500, -12.50000000000000000, 0.0000000000000000000 ) ) ;
#146 = EDGE_LOOP ( 'NONE', ( #86, #172, #72, #84 ) ) ;
#147 = CARTESIAN_POINT ( 'NONE',  ( -12.49999999999999500, -12.50000000000000400, 3.000000000000000000 ) ) ;
#148 = APPLICATION_CONTEXT ( 'configuration controlled 3d designs of mechanical parts and assemblies' ) ;
#149 = ORGANIZATION ( 'UNSPECIFIED', 'UNSPECIFIED', '' ) ;
#150 = ORIENTED_EDGE ( 'NONE', *, *, #3, .F. ) ;
#151 = PLANE ( 'NONE',  #52 ) ;
#152 = MECHANICAL_CONTEXT ( 'NONE', #148, 'mechanical' ) ;
#153 = APPLICATION_CONTEXT ( 'configuration controlled 3d designs of mechanical parts and assemblies' ) ;
#154 = DATE_AND_TIME ( #143, #41 ) ;
#155 = LINE ( 'NONE', #222, #127 ) ;
#156 = ORIENTED_EDGE ( 'NONE', *, *, #196, .F. ) ;
#157 = VECTOR ( 'NONE', #74, 1000.000000000000000 ) ;
#158 = ORIENTED_EDGE ( 'NONE', *, *, #196, .T. ) ;
#159 = APPROVAL_STATUS ( 'not_yet_approved' ) ;
#160 = VERTEX_POINT ( 'NONE', #117 ) ;
#161 = PLANE ( 'NONE',  #112 ) ;
#162 = VECTOR ( 'NONE', #201, 1000.000000000000000 ) ;
#163 = CC_DESIGN_APPROVAL ( #200, ( #224 ) ) ;
#164 = COORDINATED_UNIVERSAL_TIME_OFFSET ( 5, 0, .BEHIND. ) ;
#165 = VERTEX_POINT ( 'NONE', #64 ) ;
#166 = CARTESIAN_POINT ( 'NONE',  ( 12.50000000000000500, -12.50000000000000000, 3.000000000000000000 ) ) ;
#167 = CARTESIAN_POINT ( 'NONE',  ( -12.49999999999999800, 12.49999999999999600, 0.0000000000000000000 ) ) ;
#168 = PERSON_AND_ORGANIZATION_ROLE ( 'design_owner' ) ;
#169 = COORDINATED_UNIVERSAL_TIME_OFFSET ( 5, 0, .BEHIND. ) ;
#170 = PERSON_AND_ORGANIZATION ( #51, #149 ) ;
#171 =( NAMED_UNIT ( * ) PLANE_ANGLE_UNIT ( ) SI_UNIT ( $, .RADIAN. ) );
#172 = ORIENTED_EDGE ( 'NONE', *, *, #17, .F. ) ;
#173 = CC_DESIGN_PERSON_AND_ORGANIZATION_ASSIGNMENT ( #101, #140, ( #224 ) ) ;
#174 = ADVANCED_FACE ( 'NONE', ( #109 ), #151, .F. ) ;
#175 = LINE ( 'NONE', #145, #131 ) ;
#176 = EDGE_LOOP ( 'NONE', ( #216, #10, #26, #205 ) ) ;
#177 = CARTESIAN_POINT ( 'NONE',  ( 12.49999999999999500, 12.50000000000000000, 3.000000000000000000 ) ) ;
#178 = CARTESIAN_POINT ( 'NONE',  ( 12.49999999999999500, 12.50000000000000000, 3.000000000000000000 ) ) ;
#179 = CARTESIAN_POINT ( 'NONE',  ( -12.49999999999999800, 12.49999999999999600, 3.000000000000000000 ) ) ;
#180 = DATE_AND_TIME ( #234, #37 ) ;
#181 = APPROVAL_DATE_TIME ( #9, #200 ) ;
#182 = CLOSED_SHELL ( 'NONE', ( #123, #125, #195, #55, #174, #14 ) ) ;
#183 = DIRECTION ( 'NONE',  ( -0.0000000000000000000, -0.0000000000000000000, -1.000000000000000000 ) ) ;
#184 = CARTESIAN_POINT ( 'NONE',  ( 12.50000000000000500, -12.50000000000000000, 0.0000000000000000000 ) ) ;
#185 = CARTESIAN_POINT ( 'NONE',  ( 12.49999999999999500, 12.50000000000000000, 0.0000000000000000000 ) ) ;
#186 = DATE_AND_TIME ( #29, #97 ) ;
#187 = ORIENTED_EDGE ( 'NONE', *, *, #17, .T. ) ;
#188 = DIRECTION ( 'NONE',  ( 0.0000000000000000000, 0.0000000000000000000, -1.000000000000000000 ) ) ;
#189 = PERSON_AND_ORGANIZATION ( #51, #149 ) ;
#190 = LOCAL_TIME ( 15, 2, 9.000000000000000000, #53 ) ;
#191 = PRODUCT_DEFINITION_FORMATION_WITH_SPECIFIED_SOURCE ( 'ANY', '', #34, .NOT_KNOWN. ) ;
#192 = APPROVAL ( #212, 'UNSPECIFIED' ) ;
#193 = ORIENTED_EDGE ( 'NONE', *, *, #87, .T. ) ;
#194 = AXIS2_PLACEMENT_3D ( 'NONE', #179, #1, #202 ) ;
#195 = ADVANCED_FACE ( 'NONE', ( #61 ), #135, .F. ) ;
#196 = EDGE_CURVE ( 'NONE', #230, #235, #119, .T. ) ;
#197 = LINE ( 'NONE', #167, #215 ) ;
#198 = VECTOR ( 'NONE', #56, 1000.000000000000000 ) ;
#199 = PLANE ( 'NONE',  #194 ) ;
#200 = APPROVAL ( #13, 'UNSPECIFIED' ) ;
#201 = DIRECTION ( 'NONE',  ( -0.0000000000000000000, -0.0000000000000000000, -1.000000000000000000 ) ) ;
#202 = DIRECTION ( 'NONE',  ( -1.387778780781445400E-016, 1.000000000000000000, 0.0000000000000000000 ) ) ;
#203 = EDGE_CURVE ( 'NONE', #235, #20, #221, .T. ) ;
#204 = LINE ( 'NONE', #177, #157 ) ;
#205 = ORIENTED_EDGE ( 'NONE', *, *, #94, .F. ) ;
#206 = DIRECTION ( 'NONE',  ( 4.163336342344336500E-016, -1.000000000000000000, 0.0000000000000000000 ) ) ;
#207 = VECTOR ( 'NONE', #18, 1000.000000000000000 ) ;
#208 = LINE ( 'NONE', #129, #19 ) ;
#209 = EDGE_CURVE ( 'NONE', #230, #165, #155, .T. ) ;
#210 = APPROVAL_ROLE ( '' ) ;
#211 = PERSON_AND_ORGANIZATION ( #51, #149 ) ;
#212 = APPROVAL_STATUS ( 'not_yet_approved' ) ;
#213 = UNCERTAINTY_MEASURE_WITH_UNIT (LENGTH_MEASURE( 1.000000000000000100E-005 ), #225, 'distance_accuracy_value', 'NONE');
#214 = CC_DESIGN_APPROVAL ( #15, ( #191 ) ) ;
#215 = VECTOR ( 'NONE', #137, 1000.000000000000000 ) ;
#216 = ORIENTED_EDGE ( 'NONE', *, *, #231, .F. ) ;
#217 = DIRECTION ( 'NONE',  ( -1.000000000000000000, 0.0000000000000000000, -0.0000000000000000000 ) ) ;
#218 = LINE ( 'NONE', #134, #207 ) ;
#219 = DIRECTION ( 'NONE',  ( 1.387778780781445900E-016, -1.000000000000000000, 0.0000000000000000000 ) ) ;
#220 = DIRECTION ( 'NONE',  ( 1.000000000000000000, 1.387778780781445700E-016, -0.0000000000000000000 ) ) ;
#221 = LINE ( 'NONE', #185, #70 ) ;
#222 = CARTESIAN_POINT ( 'NONE',  ( 12.49999999999999500, 12.50000000000000000, 3.000000000000000000 ) ) ;
#223 = VERTEX_POINT ( 'NONE', #5 ) ;
#224 = PRODUCT_DEFINITION ( 'UNKNOWN', '', #191, #96 ) ;
#225 =( LENGTH_UNIT ( ) NAMED_UNIT ( * ) SI_UNIT ( .MILLI., .METRE. ) );
#226 = APPLICATION_PROTOCOL_DEFINITION ( 'international standard', 'config_control_design', 1994, #148 ) ;
#227 = CC_DESIGN_PERSON_AND_ORGANIZATION_ASSIGNMENT ( #90, #107, ( #191 ) ) ;
#228 = PERSON_AND_ORGANIZATION ( #51, #149 ) ;
#229 = APPROVAL_PERSON_ORGANIZATION ( #42, #15, #83 ) ;
#230 = VERTEX_POINT ( 'NONE', #166 ) ;
#231 = EDGE_CURVE ( 'NONE', #102, #116, #197, .T. ) ;
#232 = ORIENTED_EDGE ( 'NONE', *, *, #33, .F. ) ;
#233 = AXIS2_PLACEMENT_3D ( 'NONE', #60, #46, #206 ) ;
#234 = CALENDAR_DATE ( 2017, 31, 1 ) ;
#235 = VERTEX_POINT ( 'NONE', #184 ) ;
#236 = EDGE_CURVE ( 'NONE', #20, #102, #218, .T. ) ;
#237 = PLANE ( 'NONE',  #35 ) ;
ENDSEC;
END-ISO-10303-21;
