ISO-10303-21;
HEADER;
FILE_DESCRIPTION (( 'STEP AP214' ),
    '1' );
FILE_NAME ('4800-E0W.STEP',
    '2009-12-21T17:14:36',
    ( ' ' ),
    ( ' ' ),
    'SwSTEP 2.0',
    'SolidWorks 2009',
    '' );
FILE_SCHEMA (( 'AUTOMOTIVE_DESIGN' ));
ENDSEC;

DATA;
#1 = ORIENTED_EDGE ( 'NONE', *, *, #40, .F. ) ;
#2 = ORIENTED_EDGE ( 'NONE', *, *, #4, .F. ) ;
#3 = VERTEX_POINT ( 'NONE', #66 ) ;
#4 = EDGE_CURVE ( 'NONE', #3, #19, #67, .T. ) ;
#5 =( LENGTH_UNIT ( ) NAMED_UNIT ( * ) SI_UNIT ( .MILLI., .METRE. ) );
#6 =( NAMED_UNIT ( * ) PLANE_ANGLE_UNIT ( ) SI_UNIT ( $, .RADIAN. ) );
#7 =( NAMED_UNIT ( * ) SI_UNIT ( $, .STERADIAN. ) SOLID_ANGLE_UNIT ( ) );
#8 = PRESENTATION_LAYER_ASSIGNMENT (  '', '', ( #158 ) ) ;
#9 =( GEOMETRIC_REPRESENTATION_CONTEXT ( 3 ) GLOBAL_UNCERTAINTY_ASSIGNED_CONTEXT ( ( #11 ) ) GLOBAL_UNIT_ASSIGNED_CONTEXT ( ( #5, #6, #7 ) ) REPRESENTATION_CONTEXT ( 'NONE', 'WORKASPACE' ) );
#10 = MECHANICAL_DESIGN_GEOMETRIC_PRESENTATION_REPRESENTATION (  '', ( #158 ), #167 ) ;
#11 = UNCERTAINTY_MEASURE_WITH_UNIT (LENGTH_MEASURE( 1.000000000000000100E-005 ), #5, 'distance_accuracy_value', 'NONE');
#12 =( NAMED_UNIT ( * ) SI_UNIT ( $, .STERADIAN. ) SOLID_ANGLE_UNIT ( ) );
#13 =( NAMED_UNIT ( * ) PLANE_ANGLE_UNIT ( ) SI_UNIT ( $, .RADIAN. ) );
#14 =( LENGTH_UNIT ( ) NAMED_UNIT ( * ) SI_UNIT ( .MILLI., .METRE. ) );
#15 = EDGE_CURVE ( 'NONE', #23, #16, #70, .T. ) ;
#16 = VERTEX_POINT ( 'NONE', #72 ) ;
#17 = ORIENTED_EDGE ( 'NONE', *, *, #18, .T. ) ;
#18 = EDGE_CURVE ( 'NONE', #16, #19, #119, .T. ) ;
#19 = VERTEX_POINT ( 'NONE', #105 ) ;
#20 = ADVANCED_FACE ( 'NONE', ( #104 ), #118, .T. ) ;
#21 = EDGE_LOOP ( 'NONE', ( #22, #17, #2, #1, #51 ) ) ;
#22 = ORIENTED_EDGE ( 'NONE', *, *, #15, .T. ) ;
#23 = VERTEX_POINT ( 'NONE', #94 ) ;
#24 = ORIENTED_EDGE ( 'NONE', *, *, #31, .T. ) ;
#25 = EDGE_CURVE ( 'NONE', #37, #3, #77, .T. ) ;
#26 = ORIENTED_EDGE ( 'NONE', *, *, #25, .F. ) ;
#27 = EDGE_LOOP ( 'NONE', ( #54, #58, #56, #53, #57 ) ) ;
#28 = EDGE_CURVE ( 'NONE', #19, #39, #82, .T. ) ;
#29 = EDGE_LOOP ( 'NONE', ( #34, #32, #33, #45 ) ) ;
#30 = ADVANCED_FACE ( 'NONE', ( #83 ), #125, .F. ) ;
#31 = EDGE_CURVE ( 'NONE', #39, #41, #144, .T. ) ;
#32 = ORIENTED_EDGE ( 'NONE', *, *, #25, .T. ) ;
#33 = ORIENTED_EDGE ( 'NONE', *, *, #4, .T. ) ;
#34 = ORIENTED_EDGE ( 'NONE', *, *, #46, .F. ) ;
#35 = ORIENTED_EDGE ( 'NONE', *, *, #40, .T. ) ;
#36 = EDGE_CURVE ( 'NONE', #23, #41, #126, .T. ) ;
#37 = VERTEX_POINT ( 'NONE', #137 ) ;
#38 = ORIENTED_EDGE ( 'NONE', *, *, #46, .T. ) ;
#39 = VERTEX_POINT ( 'NONE', #140 ) ;
#40 = EDGE_CURVE ( 'NONE', #41, #3, #134, .T. ) ;
#41 = VERTEX_POINT ( 'NONE', #154 ) ;
#42 = MANIFOLD_SOLID_BREP ( 'NONE', #55 ) ;
#43 = EDGE_LOOP ( 'NONE', ( #59, #48 ) ) ;
#44 = ADVANCED_FACE ( 'NONE', ( #166 ), #168, .F. ) ;
#45 = ORIENTED_EDGE ( 'NONE', *, *, #28, .T. ) ;
#46 = EDGE_CURVE ( 'NONE', #37, #39, #169, .T. ) ;
#47 = EDGE_CURVE ( 'NONE', #16, #23, #183, .T. ) ;
#48 = ORIENTED_EDGE ( 'NONE', *, *, #47, .F. ) ;
#49 = ADVANCED_FACE ( 'NONE', ( #191 ), #255, .T. ) ;
#50 = EDGE_LOOP ( 'NONE', ( #26, #38, #24, #35 ) ) ;
#51 = ORIENTED_EDGE ( 'NONE', *, *, #36, .F. ) ;
#52 = ADVANCED_FACE ( 'NONE', ( #240 ), #241, .F. ) ;
#53 = ORIENTED_EDGE ( 'NONE', *, *, #31, .F. ) ;
#54 = ORIENTED_EDGE ( 'NONE', *, *, #18, .F. ) ;
#55 = CLOSED_SHELL ( 'NONE', ( #20, #52, #30, #44, #49 ) ) ;
#56 = ORIENTED_EDGE ( 'NONE', *, *, #36, .T. ) ;
#57 = ORIENTED_EDGE ( 'NONE', *, *, #28, .F. ) ;
#58 = ORIENTED_EDGE ( 'NONE', *, *, #47, .T. ) ;
#59 = ORIENTED_EDGE ( 'NONE', *, *, #15, .F. ) ;
#60 = AXIS2_PLACEMENT_3D ( 'NONE', #71, #65, #61 ) ;
#61 = DIRECTION ( 'NONE',  ( 1.000000000000000000, 0.0000000000000000000, 0.0000000000000000000 ) ) ;
#62 = DIRECTION ( 'NONE',  ( 1.000000000000000000, 0.0000000000000000000, 0.0000000000000000000 ) ) ;
#63 = DIRECTION ( 'NONE',  ( -0.0000000000000000000, -0.0000000000000000000, 1.000000000000000000 ) ) ;
#64 = AXIS2_PLACEMENT_3D ( 'NONE', #69, #63, #62 ) ;
#65 = DIRECTION ( 'NONE',  ( -0.0000000000000000000, -0.0000000000000000000, 1.000000000000000000 ) ) ;
#66 = CARTESIAN_POINT ( 'NONE',  ( 0.0000000000000000000, 4.500000000000000900, 1.374571931753611800 ) ) ;
#67 = CIRCLE ( 'NONE', #60, 4.500000000000000900 ) ;
#68 = UNCERTAINTY_MEASURE_WITH_UNIT (LENGTH_MEASURE( 1.000000000000000100E-005 ), #14, 'distance_accuracy_value', 'NONE');
#69 = CARTESIAN_POINT ( 'NONE',  ( 0.0000000000000000000, 0.0000000000000000000, -1.374571931753610300 ) ) ;
#70 = CIRCLE ( 'NONE', #64, 4.500000000000000900 ) ;
#71 = CARTESIAN_POINT ( 'NONE',  ( 0.0000000000000000000, 0.0000000000000000000, 1.374571931753610300 ) ) ;
#72 = CARTESIAN_POINT ( 'NONE',  ( -4.500000000000000900, 5.510728592200698600E-016, -1.374571931753610300 ) ) ;
#73 = DIRECTION ( 'NONE',  ( 0.0000000000000000000, 0.0000000000000000000, -1.000000000000000000 ) ) ;
#74 = DIRECTION ( 'NONE',  ( 1.000000000000000000, 0.0000000000000000000, 0.0000000000000000000 ) ) ;
#75 = CARTESIAN_POINT ( 'NONE',  ( 0.0000000000000000000, 0.0000000000000000000, 14.51542806824639200 ) ) ;
#76 = AXIS2_PLACEMENT_3D ( 'NONE', #75, #74, #73 ) ;
#77 = CIRCLE ( 'NONE', #76, 13.88999999999999900 ) ;
#78 = FILL_AREA_STYLE ('',( #103 ) ) ;
#79 = CARTESIAN_POINT ( 'NONE',  ( 0.0000000000000000000, 0.0000000000000000000, 1.374571931753610300 ) ) ;
#80 =( LENGTH_UNIT ( ) NAMED_UNIT ( * ) SI_UNIT ( .MILLI., .METRE. ) );
#81 = MECHANICAL_DESIGN_GEOMETRIC_PRESENTATION_REPRESENTATION (  '', ( #112 ), #89 ) ;
#82 = CIRCLE ( 'NONE', #88, 4.500000000000000900 ) ;
#83 = FACE_OUTER_BOUND ( 'NONE', #29, .T. ) ;
#84 = FILL_AREA_STYLE_COLOUR ( '', #85 ) ;
#85 = COLOUR_RGB ( '',0.9568627450980391500, 0.9490196078431372100, 0.9607843137254902200 ) ;
#86 = DIRECTION ( 'NONE',  ( 1.000000000000000000, 0.0000000000000000000, 0.0000000000000000000 ) ) ;
#87 = DIRECTION ( 'NONE',  ( -0.0000000000000000000, -0.0000000000000000000, 1.000000000000000000 ) ) ;
#88 = AXIS2_PLACEMENT_3D ( 'NONE', #79, #87, #86 ) ;
#89 =( GEOMETRIC_REPRESENTATION_CONTEXT ( 3 ) GLOBAL_UNCERTAINTY_ASSIGNED_CONTEXT ( ( #109 ) ) GLOBAL_UNIT_ASSIGNED_CONTEXT ( ( #80, #120, #110 ) ) REPRESENTATION_CONTEXT ( 'NONE', 'WORKASPACE' ) );
#90 = DIRECTION ( 'NONE',  ( 1.000000000000000000, 0.0000000000000000000, 0.0000000000000000000 ) ) ;
#91 = DIRECTION ( 'NONE',  ( -0.0000000000000000000, -0.0000000000000000000, 1.000000000000000000 ) ) ;
#92 = CARTESIAN_POINT ( 'NONE',  ( 0.0000000000000000000, 0.0000000000000000000, 8.642581338675716700 ) ) ;
#93 = AXIS2_PLACEMENT_3D ( 'NONE', #92, #91, #90 ) ;
#94 = CARTESIAN_POINT ( 'NONE',  ( 4.500000000000000900, 0.0000000000000000000, -1.374571931753610300 ) ) ;
#95 = MECHANICAL_DESIGN_GEOMETRIC_PRESENTATION_REPRESENTATION (  '', ( #97 ), #9 ) ;
#96 = PRESENTATION_LAYER_ASSIGNMENT (  '', '', ( #97 ) ) ;
#97 = STYLED_ITEM ( 'NONE', ( #98 ), #30 ) ;
#98 = PRESENTATION_STYLE_ASSIGNMENT (( #99 ) ) ;
#99 = SURFACE_STYLE_USAGE ( .BOTH. , #100 ) ;
#100 = SURFACE_SIDE_STYLE ('',( #101 ) ) ;
#101 = SURFACE_STYLE_FILL_AREA ( #102 ) ;
#102 = FILL_AREA_STYLE ('',( #84 ) ) ;
#103 = FILL_AREA_STYLE_COLOUR ( '', #117 ) ;
#104 = FACE_OUTER_BOUND ( 'NONE', #21, .T. ) ;
#105 = CARTESIAN_POINT ( 'NONE',  ( -4.500000000000000900, 5.510728592200698600E-016, 1.374571931753610300 ) ) ;
#106 = DIRECTION ( 'NONE',  ( -0.0000000000000000000, -0.0000000000000000000, 1.000000000000000000 ) ) ;
#107 = VECTOR ( 'NONE', #106, 1000.000000000000000 ) ;
#108 = CARTESIAN_POINT ( 'NONE',  ( -4.500000000000000900, 5.510728592200698600E-016, 8.642581338675716700 ) ) ;
#109 = UNCERTAINTY_MEASURE_WITH_UNIT (LENGTH_MEASURE( 1.000000000000000100E-005 ), #80, 'distance_accuracy_value', 'NONE');
#110 =( NAMED_UNIT ( * ) SI_UNIT ( $, .STERADIAN. ) SOLID_ANGLE_UNIT ( ) );
#111 = PRESENTATION_LAYER_ASSIGNMENT (  '', '', ( #112 ) ) ;
#112 = STYLED_ITEM ( 'NONE', ( #113 ), #20 ) ;
#113 = PRESENTATION_STYLE_ASSIGNMENT (( #114 ) ) ;
#114 = SURFACE_STYLE_USAGE ( .BOTH. , #115 ) ;
#115 = SURFACE_SIDE_STYLE ('',( #116 ) ) ;
#116 = SURFACE_STYLE_FILL_AREA ( #78 ) ;
#117 = COLOUR_RGB ( '',0.9568627450980391500, 0.9490196078431372100, 0.9607843137254902200 ) ;
#118 = CYLINDRICAL_SURFACE ( 'NONE', #93, 4.500000000000000900 ) ;
#119 = LINE ( 'NONE', #108, #107 ) ;
#120 =( NAMED_UNIT ( * ) PLANE_ANGLE_UNIT ( ) SI_UNIT ( $, .RADIAN. ) );
#121 =( NAMED_UNIT ( * ) PLANE_ANGLE_UNIT ( ) SI_UNIT ( $, .RADIAN. ) );
#122 = CARTESIAN_POINT ( 'NONE',  ( 0.0000000000000000000, 0.0000000000000000000, 1.374571931753610300 ) ) ;
#123 = DIRECTION ( 'NONE',  ( 0.0000000000000000000, 1.000000000000000000, 0.0000000000000000000 ) ) ;
#124 = DIRECTION ( 'NONE',  ( -1.000000000000000000, 0.0000000000000000000, 0.0000000000000000000 ) ) ;
#125 = SPHERICAL_SURFACE ( 'NONE', #129, 13.88999999999999900 ) ;
#126 = LINE ( 'NONE', #145, #139 ) ;
#127 = DIRECTION ( 'NONE',  ( 1.000000000000000000, 0.0000000000000000000, 0.0000000000000000000 ) ) ;
#128 = CARTESIAN_POINT ( 'NONE',  ( 0.0000000000000000000, 0.0000000000000000000, 14.51542806824639200 ) ) ;
#129 = AXIS2_PLACEMENT_3D ( 'NONE', #128, #124, #123 ) ;
#130 =( LENGTH_UNIT ( ) NAMED_UNIT ( * ) SI_UNIT ( .MILLI., .METRE. ) );
#131 = MECHANICAL_DESIGN_GEOMETRIC_PRESENTATION_REPRESENTATION (  '', ( #146 ), #141 ) ;
#132 = PRESENTATION_LAYER_ASSIGNMENT (  '', '', ( #146 ) ) ;
#133 = AXIS2_PLACEMENT_3D ( 'NONE', #157, #156, #155 ) ;
#134 = CIRCLE ( 'NONE', #133, 4.500000000000000900 ) ;
#135 = UNCERTAINTY_MEASURE_WITH_UNIT (LENGTH_MEASURE( 1.000000000000000100E-005 ), #130, 'distance_accuracy_value', 'NONE');
#136 =( NAMED_UNIT ( * ) SI_UNIT ( $, .STERADIAN. ) SOLID_ANGLE_UNIT ( ) );
#137 = CARTESIAN_POINT ( 'NONE',  ( 0.0000000000000000000, 8.504891127296409600E-016, 0.6254280682463919700 ) ) ;
#138 = DIRECTION ( 'NONE',  ( -0.0000000000000000000, -0.0000000000000000000, 1.000000000000000000 ) ) ;
#139 = VECTOR ( 'NONE', #138, 1000.000000000000000 ) ;
#140 = CARTESIAN_POINT ( 'NONE',  ( -5.510728592200697700E-016, -4.500000000000000900, 1.374571931753611800 ) ) ;
#141 =( GEOMETRIC_REPRESENTATION_CONTEXT ( 3 ) GLOBAL_UNCERTAINTY_ASSIGNED_CONTEXT ( ( #135 ) ) GLOBAL_UNIT_ASSIGNED_CONTEXT ( ( #130, #121, #136 ) ) REPRESENTATION_CONTEXT ( 'NONE', 'WORKASPACE' ) );
#142 = DIRECTION ( 'NONE',  ( -0.0000000000000000000, -0.0000000000000000000, 1.000000000000000000 ) ) ;
#143 = AXIS2_PLACEMENT_3D ( 'NONE', #122, #142, #127 ) ;
#144 = CIRCLE ( 'NONE', #143, 4.500000000000000900 ) ;
#145 = CARTESIAN_POINT ( 'NONE',  ( 4.500000000000000900, 0.0000000000000000000, 8.642581338675716700 ) ) ;
#146 = STYLED_ITEM ( 'NONE', ( #147 ), #42 ) ;
#147 = PRESENTATION_STYLE_ASSIGNMENT (( #148 ) ) ;
#148 = SURFACE_STYLE_USAGE ( .BOTH. , #149 ) ;
#149 = SURFACE_SIDE_STYLE ('',( #150 ) ) ;
#150 = SURFACE_STYLE_FILL_AREA ( #151 ) ;
#151 = FILL_AREA_STYLE ('',( #152 ) ) ;
#152 = FILL_AREA_STYLE_COLOUR ( '', #153 ) ;
#153 = COLOUR_RGB ( '',0.7960784313725489700, 0.8235294117647058400, 0.9372549019607843100 ) ;
#154 = CARTESIAN_POINT ( 'NONE',  ( 4.500000000000000900, 0.0000000000000000000, 1.374571931753610300 ) ) ;
#155 = DIRECTION ( 'NONE',  ( 1.000000000000000000, 0.0000000000000000000, 0.0000000000000000000 ) ) ;
#156 = DIRECTION ( 'NONE',  ( -0.0000000000000000000, -0.0000000000000000000, 1.000000000000000000 ) ) ;
#157 = CARTESIAN_POINT ( 'NONE',  ( 0.0000000000000000000, 0.0000000000000000000, 1.374571931753610300 ) ) ;
#158 = STYLED_ITEM ( 'NONE', ( #159 ), #44 ) ;
#159 = PRESENTATION_STYLE_ASSIGNMENT (( #160 ) ) ;
#160 = SURFACE_STYLE_USAGE ( .BOTH. , #161 ) ;
#161 = SURFACE_SIDE_STYLE ('',( #162 ) ) ;
#162 = SURFACE_STYLE_FILL_AREA ( #163 ) ;
#163 = FILL_AREA_STYLE ('',( #164 ) ) ;
#164 = FILL_AREA_STYLE_COLOUR ( '', #165 ) ;
#165 = COLOUR_RGB ( '',0.9568627450980391500, 0.9490196078431372100, 0.9607843137254902200 ) ;
#166 = FACE_OUTER_BOUND ( 'NONE', #43, .T. ) ;
#167 =( GEOMETRIC_REPRESENTATION_CONTEXT ( 3 ) GLOBAL_UNCERTAINTY_ASSIGNED_CONTEXT ( ( #68 ) ) GLOBAL_UNIT_ASSIGNED_CONTEXT ( ( #14, #13, #12 ) ) REPRESENTATION_CONTEXT ( 'NONE', 'WORKASPACE' ) );
#168 = PLANE ( 'NONE',  #172 ) ;
#169 = CIRCLE ( 'NONE', #176, 13.88999999999999900 ) ;
#170 = DIRECTION ( 'NONE',  ( 0.0000000000000000000, -0.0000000000000000000, 1.000000000000000000 ) ) ;
#171 = CARTESIAN_POINT ( 'NONE',  ( 0.0000000000000000000, 3.673940397442059900E-016, -1.374571931753609400 ) ) ;
#172 = AXIS2_PLACEMENT_3D ( 'NONE', #171, #170, #177 ) ;
#173 = DIRECTION ( 'NONE',  ( -1.224606353822377300E-016, -1.000000000000000000, 0.0000000000000000000 ) ) ;
#174 = DIRECTION ( 'NONE',  ( -1.000000000000000000, 1.224606353822377300E-016, 0.0000000000000000000 ) ) ;
#175 = CARTESIAN_POINT ( 'NONE',  ( 0.0000000000000000000, 0.0000000000000000000, 14.51542806824639200 ) ) ;
#176 = AXIS2_PLACEMENT_3D ( 'NONE', #175, #174, #173 ) ;
#177 = DIRECTION ( 'NONE',  ( 1.000000000000000000, 0.0000000000000000000, 0.0000000000000000000 ) ) ;
#178 =( NAMED_UNIT ( * ) PLANE_ANGLE_UNIT ( ) SI_UNIT ( $, .RADIAN. ) );
#179 =( LENGTH_UNIT ( ) NAMED_UNIT ( * ) SI_UNIT ( .MILLI., .METRE. ) );
#180 = DIRECTION ( 'NONE',  ( -0.0000000000000000000, -0.0000000000000000000, 1.000000000000000000 ) ) ;
#181 = DIRECTION ( 'NONE',  ( 1.000000000000000000, 0.0000000000000000000, 0.0000000000000000000 ) ) ;
#182 = AXIS2_PLACEMENT_3D ( 'NONE', #194, #180, #181 ) ;
#183 = CIRCLE ( 'NONE', #182, 4.500000000000000900 ) ;
#184 = UNCERTAINTY_MEASURE_WITH_UNIT (LENGTH_MEASURE( 1.000000000000000100E-005 ), #179, 'distance_accuracy_value', 'NONE');
#185 =( NAMED_UNIT ( * ) SI_UNIT ( $, .STERADIAN. ) SOLID_ANGLE_UNIT ( ) );
#186 = FILL_AREA_STYLE_COLOUR ( '', #187 ) ;
#187 = COLOUR_RGB ( '',0.9568627450980391500, 0.9490196078431372100, 0.9607843137254902200 ) ;
#188 = STYLED_ITEM ( 'NONE', ( #189 ), #49 ) ;
#189 = PRESENTATION_STYLE_ASSIGNMENT (( #190 ) ) ;
#190 = SURFACE_STYLE_USAGE ( .BOTH. , #195 ) ;
#191 = FACE_OUTER_BOUND ( 'NONE', #27, .T. ) ;
#192 = MECHANICAL_DESIGN_GEOMETRIC_PRESENTATION_REPRESENTATION (  '', ( #188 ), #254 ) ;
#193 = PRESENTATION_LAYER_ASSIGNMENT (  '', '', ( #188 ) ) ;
#194 = CARTESIAN_POINT ( 'NONE',  ( 0.0000000000000000000, 0.0000000000000000000, -1.374571931753610300 ) ) ;
#195 = SURFACE_SIDE_STYLE ('',( #196 ) ) ;
#196 = SURFACE_STYLE_FILL_AREA ( #197 ) ;
#197 = FILL_AREA_STYLE ('',( #186 ) ) ;
#198 = COLOUR_RGB ( '',0.9568627450980391500, 0.9490196078431372100, 0.9607843137254902200 ) ;
#199 = DIRECTION ( 'NONE',  ( 1.000000000000000000, 0.0000000000000000000, 0.0000000000000000000 ) ) ;
#200 = AXIS2_PLACEMENT_3D ( 'NONE', #227, #212, #199 ) ;
#201 = PRODUCT_DEFINITION_SHAPE ( 'NONE', 'NONE',  #204 ) ;
#202 = PRODUCT_RELATED_PRODUCT_CATEGORY ( 'part', '', ( #209 ) ) ;
#203 = PRODUCT_DEFINITION_FORMATION_WITH_SPECIFIED_SOURCE ( 'ANY', '', #209, .NOT_KNOWN. ) ;
#204 = PRODUCT_DEFINITION ( 'UNKNOWN', '', #203, #205 ) ;
#205 = PRODUCT_DEFINITION_CONTEXT ( 'detailed design', #207, 'design' ) ;
#206 = APPLICATION_PROTOCOL_DEFINITION ( 'draft international standard', 'automotive_design', 1998, #207 ) ;
#207 = APPLICATION_CONTEXT ( 'automotive_design' ) ;
#208 = SHAPE_DEFINITION_REPRESENTATION ( #201, #243 ) ;
#209 = PRODUCT ( '4800-E0W', '4800-E0W', '', ( #210 ) ) ;
#210 = PRODUCT_CONTEXT ( 'NONE', #232, 'mechanical' ) ;
#211 = APPLICATION_PROTOCOL_DEFINITION ( 'draft international standard', 'automotive_design', 1998, #232 ) ;
#212 = DIRECTION ( 'NONE',  ( -0.0000000000000000000, -0.0000000000000000000, 1.000000000000000000 ) ) ;
#213 = PRESENTATION_LAYER_ASSIGNMENT (  '', '', ( #242 ) ) ;
#214 =( LENGTH_UNIT ( ) NAMED_UNIT ( * ) SI_UNIT ( .MILLI., .METRE. ) );
#215 =( GEOMETRIC_REPRESENTATION_CONTEXT ( 3 ) GLOBAL_UNCERTAINTY_ASSIGNED_CONTEXT ( ( #257 ) ) GLOBAL_UNIT_ASSIGNED_CONTEXT ( ( #229, #259, #258 ) ) REPRESENTATION_CONTEXT ( 'NONE', 'WORKASPACE' ) );
#216 = PRESENTATION_LAYER_ASSIGNMENT (  '', '', ( #217 ) ) ;
#217 = STYLED_ITEM ( 'NONE', ( #218 ), #243 ) ;
#218 = PRESENTATION_STYLE_ASSIGNMENT (( #219 ) ) ;
#219 = SURFACE_STYLE_USAGE ( .BOTH. , #220 ) ;
#220 = SURFACE_SIDE_STYLE ('',( #221 ) ) ;
#221 = SURFACE_STYLE_FILL_AREA ( #222 ) ;
#222 = FILL_AREA_STYLE ('',( #223 ) ) ;
#223 = FILL_AREA_STYLE_COLOUR ( '', #224 ) ;
#224 = COLOUR_RGB ( '',0.7960784313725489700, 0.8235294117647058400, 0.9372549019607843100 ) ;
#225 = FILL_AREA_STYLE ('',( #231 ) ) ;
#226 = DIRECTION ( 'NONE',  ( 0.0000000000000000000, 0.0000000000000000000, 1.000000000000000000 ) ) ;
#227 = CARTESIAN_POINT ( 'NONE',  ( 0.0000000000000000000, 0.0000000000000000000, 8.642581338675716700 ) ) ;
#228 = SURFACE_SIDE_STYLE ('',( #238 ) ) ;
#229 =( LENGTH_UNIT ( ) NAMED_UNIT ( * ) SI_UNIT ( .MILLI., .METRE. ) );
#230 = MECHANICAL_DESIGN_GEOMETRIC_PRESENTATION_REPRESENTATION (  '', ( #217 ), #215 ) ;
#231 = FILL_AREA_STYLE_COLOUR ( '', #198 ) ;
#232 = APPLICATION_CONTEXT ( 'automotive_design' ) ;
#233 = DIRECTION ( 'NONE',  ( 1.000000000000000000, 0.0000000000000000000, 0.0000000000000000000 ) ) ;
#234 = AXIS2_PLACEMENT_3D ( 'NONE', #249, #226, #233 ) ;
#235 = UNCERTAINTY_MEASURE_WITH_UNIT (LENGTH_MEASURE( 1.000000000000000100E-005 ), #214, 'distance_accuracy_value', 'NONE');
#236 =( NAMED_UNIT ( * ) SI_UNIT ( $, .STERADIAN. ) SOLID_ANGLE_UNIT ( ) );
#237 =( NAMED_UNIT ( * ) PLANE_ANGLE_UNIT ( ) SI_UNIT ( $, .RADIAN. ) );
#238 = SURFACE_STYLE_FILL_AREA ( #225 ) ;
#239 =( GEOMETRIC_REPRESENTATION_CONTEXT ( 3 ) GLOBAL_UNCERTAINTY_ASSIGNED_CONTEXT ( ( #260 ) ) GLOBAL_UNIT_ASSIGNED_CONTEXT ( ( #256, #250, #261 ) ) REPRESENTATION_CONTEXT ( 'NONE', 'WORKASPACE' ) );
#240 = FACE_OUTER_BOUND ( 'NONE', #50, .T. ) ;
#241 = SPHERICAL_SURFACE ( 'NONE', #248, 13.88999999999999900 ) ;
#242 = STYLED_ITEM ( 'NONE', ( #253 ), #52 ) ;
#243 = ADVANCED_BREP_SHAPE_REPRESENTATION ( '4800-E0W', ( #42, #234 ), #244 ) ;
#244 =( GEOMETRIC_REPRESENTATION_CONTEXT ( 3 ) GLOBAL_UNCERTAINTY_ASSIGNED_CONTEXT ( ( #235 ) ) GLOBAL_UNIT_ASSIGNED_CONTEXT ( ( #214, #237, #236 ) ) REPRESENTATION_CONTEXT ( 'NONE', 'WORKASPACE' ) );
#245 = DIRECTION ( 'NONE',  ( 0.0000000000000000000, 1.000000000000000000, 0.0000000000000000000 ) ) ;
#246 = DIRECTION ( 'NONE',  ( -1.000000000000000000, 0.0000000000000000000, 0.0000000000000000000 ) ) ;
#247 = CARTESIAN_POINT ( 'NONE',  ( 0.0000000000000000000, 0.0000000000000000000, 14.51542806824639200 ) ) ;
#248 = AXIS2_PLACEMENT_3D ( 'NONE', #247, #246, #245 ) ;
#249 = CARTESIAN_POINT ( 'NONE',  ( 0.0000000000000000000, 0.0000000000000000000, 0.0000000000000000000 ) ) ;
#250 =( NAMED_UNIT ( * ) PLANE_ANGLE_UNIT ( ) SI_UNIT ( $, .RADIAN. ) );
#251 = SURFACE_STYLE_USAGE ( .BOTH. , #228 ) ;
#252 = MECHANICAL_DESIGN_GEOMETRIC_PRESENTATION_REPRESENTATION (  '', ( #242 ), #239 ) ;
#253 = PRESENTATION_STYLE_ASSIGNMENT (( #251 ) ) ;
#254 =( GEOMETRIC_REPRESENTATION_CONTEXT ( 3 ) GLOBAL_UNCERTAINTY_ASSIGNED_CONTEXT ( ( #184 ) ) GLOBAL_UNIT_ASSIGNED_CONTEXT ( ( #179, #178, #185 ) ) REPRESENTATION_CONTEXT ( 'NONE', 'WORKASPACE' ) );
#255 = CYLINDRICAL_SURFACE ( 'NONE', #200, 4.500000000000000900 ) ;
#256 =( LENGTH_UNIT ( ) NAMED_UNIT ( * ) SI_UNIT ( .MILLI., .METRE. ) );
#257 = UNCERTAINTY_MEASURE_WITH_UNIT (LENGTH_MEASURE( 1.000000000000000100E-005 ), #229, 'distance_accuracy_value', 'NONE');
#258 =( NAMED_UNIT ( * ) SI_UNIT ( $, .STERADIAN. ) SOLID_ANGLE_UNIT ( ) );
#259 =( NAMED_UNIT ( * ) PLANE_ANGLE_UNIT ( ) SI_UNIT ( $, .RADIAN. ) );
#260 = UNCERTAINTY_MEASURE_WITH_UNIT (LENGTH_MEASURE( 1.000000000000000100E-005 ), #256, 'distance_accuracy_value', 'NONE');
#261 =( NAMED_UNIT ( * ) SI_UNIT ( $, .STERADIAN. ) SOLID_ANGLE_UNIT ( ) );
ENDSEC;
END-ISO-10303-21;
