ISO-10303-21;
HEADER;
FILE_DESCRIPTION (( 'STEP AP203' ),
    '1' );
FILE_NAME ('TTN188099-E0W.STEP',
    '2019-12-16T20:26:14',
    ( '' ),
    ( '' ),
    'SwSTEP 2.0',
    'SolidWorks 2018',
    '' );
FILE_SCHEMA (( 'CONFIG_CONTROL_DESIGN' ));
ENDSEC;

DATA;
#1 = PERSON_AND_ORGANIZATION ( #46, #14 ) ;
#2 = FACE_OUTER_BOUND ( 'NONE', #39, .T. ) ;
#3 = DESIGN_CONTEXT ( 'detailed design', #158, 'design' ) ;
#4 = CALENDAR_DATE ( 2019, 16, 12 ) ;
#5 = ORIENTED_EDGE ( 'NONE', *, *, #18, .T. ) ;
#6 = ORIENTED_EDGE ( 'NONE', *, *, #193, .F. ) ;
#7 = AXIS2_PLACEMENT_3D ( 'NONE', #239, #25, #92 ) ;
#8 = EDGE_CURVE ( 'NONE', #116, #253, #132, .T. ) ;
#9 = APPROVAL_PERSON_ORGANIZATION ( #266, #263, #260 ) ;
#10 = AXIS2_PLACEMENT_3D ( 'NONE', #234, #257, #176 ) ;
#11 = ORIENTED_EDGE ( 'NONE', *, *, #45, .F. ) ;
#12 = APPROVAL_STATUS ( 'not_yet_approved' ) ;
#13 = AXIS2_PLACEMENT_3D ( 'NONE', #223, #224, #244 ) ;
#14 = ORGANIZATION ( 'UNSPECIFIED', 'UNSPECIFIED', '' ) ;
#15 = EDGE_CURVE ( 'NONE', #121, #206, #217, .T. ) ;
#16 = CARTESIAN_POINT ( 'NONE',  ( 0.0000000000000000000, 0.0000000000000000000, 124.6500000000000057 ) ) ;
#17 = CONICAL_SURFACE ( 'NONE', #86, 25.15000000000000568, 0.7853981633974552734 ) ;
#18 = EDGE_CURVE ( 'NONE', #110, #211, #183, .T. ) ;
#19 = DIRECTION ( 'NONE',  ( -1.000000000000000000, 0.0000000000000000000, 0.0000000000000000000 ) ) ;
#20 = CC_DESIGN_DATE_AND_TIME_ASSIGNMENT ( #150, #76, ( #131 ) ) ;
#21 = PLANE ( 'NONE',  #72 ) ;
#22 = ORIENTED_EDGE ( 'NONE', *, *, #220, .T. ) ;
#23 = CARTESIAN_POINT ( 'NONE',  ( 0.0000000000000000000, 7.969389045451402072E-15, -5.500000000000005329 ) ) ;
#24 = LOCAL_TIME ( 15, 26, 14.00000000000000000, #28 ) ;
#25 = DIRECTION ( 'NONE',  ( -0.0000000000000000000, -0.0000000000000000000, 1.000000000000000000 ) ) ;
#26 = CARTESIAN_POINT ( 'NONE',  ( 25.39999999999999503, 0.0000000000000000000, -0.2499999999999863443 ) ) ;
#27 = EDGE_CURVE ( 'NONE', #206, #116, #55, .T. ) ;
#28 = COORDINATED_UNIVERSAL_TIME_OFFSET ( 5, 0, .BEHIND. ) ;
#29 = APPROVAL_ROLE ( '' ) ;
#30 = APPLICATION_CONTEXT ( 'configuration controlled 3d designs of mechanical parts and assemblies' ) ;
#31 = EDGE_CURVE ( 'NONE', #211, #152, #248, .T. ) ;
#32 = ADVANCED_FACE ( 'NONE', ( #196 ), #112, .T. ) ;
#33 = VECTOR ( 'NONE', #174, 1000.000000000000000 ) ;
#34 = VECTOR ( 'NONE', #180, 999.9999999999998863 ) ;
#35 = ADVANCED_FACE ( 'NONE', ( #71 ), #262, .T. ) ;
#36 = UNCERTAINTY_MEASURE_WITH_UNIT (LENGTH_MEASURE( 1.000000000000000082E-05 ), #177, 'distance_accuracy_value', 'NONE');
#37 = CARTESIAN_POINT ( 'NONE',  ( 0.0000000000000000000, 0.0000000000000000000, 124.6500000000000057 ) ) ;
#38 = APPROVAL_PERSON_ORGANIZATION ( #213, #179, #56 ) ;
#39 = EDGE_LOOP ( 'NONE', ( #6, #171, #74, #58 ) ) ;
#40 = ORIENTED_EDGE ( 'NONE', *, *, #214, .F. ) ;
#41 = CARTESIAN_POINT ( 'NONE',  ( 0.0000000000000000000, 0.0000000000000000000, -2.997414779931983908 ) ) ;
#42 = DIRECTION ( 'NONE',  ( -1.000000000000000000, 0.0000000000000000000, 0.0000000000000000000 ) ) ;
#43 = LOCAL_TIME ( 15, 26, 14.00000000000000000, #221 ) ;
#44 = EDGE_LOOP ( 'NONE', ( #146, #47, #209, #64 ) ) ;
#45 = EDGE_CURVE ( 'NONE', #253, #222, #252, .T. ) ;
#46 = PERSON ( 'UNSPECIFIED', 'UNSPECIFIED', 'UNSPECIFIED', ('UNSPECIFIED'), ('UNSPECIFIED'), ('UNSPECIFIED') ) ;
#47 = ORIENTED_EDGE ( 'NONE', *, *, #193, .T. ) ;
#48 = PERSON_AND_ORGANIZATION ( #46, #14 ) ;
#49 = SPHERICAL_SURFACE ( 'NONE', #95, 130.1500000000000057 ) ;
#50 = AXIS2_PLACEMENT_3D ( 'NONE', #41, #63, #204 ) ;
#51 = CARTESIAN_POINT ( 'NONE',  ( 0.0000000000000000000, 0.0000000000000000000, 0.0000000000000000000 ) ) ;
#52 = APPLICATION_PROTOCOL_DEFINITION ( 'international standard', 'config_control_design', 1994, #158 ) ;
#53 = APPROVAL_STATUS ( 'not_yet_approved' ) ;
#54 = DATE_AND_TIME ( #160, #108 ) ;
#55 = CIRCLE ( 'NONE', #133, 25.39999999999998437 ) ;
#56 = APPROVAL_ROLE ( '' ) ;
#57 = APPROVAL ( #73, 'UNSPECIFIED' ) ;
#58 = ORIENTED_EDGE ( 'NONE', *, *, #15, .F. ) ;
#59 = ADVANCED_BREP_SHAPE_REPRESENTATION ( 'TTN188099-E0W', ( #249, #10 ), #229 ) ;
#60 = DIRECTION ( 'NONE',  ( -1.000000000000000000, 0.0000000000000000000, 0.0000000000000000000 ) ) ;
#61 = ADVANCED_FACE ( 'NONE', ( #2 ), #49, .T. ) ;
#62 = CIRCLE ( 'NONE', #232, 130.1500000000000057 ) ;
#63 = DIRECTION ( 'NONE',  ( -0.0000000000000000000, -0.0000000000000000000, 1.000000000000000000 ) ) ;
#64 = ORIENTED_EDGE ( 'NONE', *, *, #8, .F. ) ;
#65 = DIRECTION ( 'NONE',  ( -1.000000000000000000, 0.0000000000000000000, 0.0000000000000000000 ) ) ;
#66 = EDGE_CURVE ( 'NONE', #222, #152, #109, .T. ) ;
#67 = DIRECTION ( 'NONE',  ( -1.000000000000000000, 0.0000000000000000000, 0.0000000000000000000 ) ) ;
#68 = CARTESIAN_POINT ( 'NONE',  ( 0.0000000000000000000, 0.0000000000000000000, 124.6500000000000057 ) ) ;
#69 = EDGE_LOOP ( 'NONE', ( #237, #189, #136, #113 ) ) ;
#70 = DIRECTION ( 'NONE',  ( 0.0000000000000000000, 0.0000000000000000000, -1.000000000000000000 ) ) ;
#71 = FACE_OUTER_BOUND ( 'NONE', #258, .T. ) ;
#72 = AXIS2_PLACEMENT_3D ( 'NONE', #51, #212, #134 ) ;
#73 = APPROVAL_STATUS ( 'not_yet_approved' ) ;
#74 = ORIENTED_EDGE ( 'NONE', *, *, #27, .F. ) ;
#75 = FACE_OUTER_BOUND ( 'NONE', #99, .T. ) ;
#76 = DATE_TIME_ROLE ( 'classification_date' ) ;
#77 = FACE_OUTER_BOUND ( 'NONE', #78, .T. ) ;
#78 = EDGE_LOOP ( 'NONE', ( #40, #83, #173, #94, #100 ) ) ;
#79 = AXIS2_PLACEMENT_3D ( 'NONE', #240, #118, #219 ) ;
#80 = CARTESIAN_POINT ( 'NONE',  ( 25.15000000000000568, 3.079986699855593867E-15, 0.0000000000000000000 ) ) ;
#81 = FACE_OUTER_BOUND ( 'NONE', #69, .T. ) ;
#82 = CARTESIAN_POINT ( 'NONE',  ( 25.15000000000000568, 3.095294784844934972E-15, 0.0000000000000000000 ) ) ;
#83 = ORIENTED_EDGE ( 'NONE', *, *, #27, .T. ) ;
#84 = DIRECTION ( 'NONE',  ( 0.0000000000000000000, 0.0000000000000000000, -1.000000000000000000 ) ) ;
#85 = CALENDAR_DATE ( 2019, 16, 12 ) ;
#86 = AXIS2_PLACEMENT_3D ( 'NONE', #168, #268, #65 ) ;
#87 = CC_DESIGN_APPROVAL ( #179, ( #97 ) ) ;
#88 = FACE_OUTER_BOUND ( 'NONE', #44, .T. ) ;
#89 = EDGE_CURVE ( 'NONE', #253, #121, #202, .T. ) ;
#90 = COORDINATED_UNIVERSAL_TIME_OFFSET ( 5, 0, .BEHIND. ) ;
#91 = LINE ( 'NONE', #80, #34 ) ;
#92 = DIRECTION ( 'NONE',  ( -1.000000000000000000, 0.0000000000000000000, 0.0000000000000000000 ) ) ;
#93 = CALENDAR_DATE ( 2019, 16, 12 ) ;
#94 = ORIENTED_EDGE ( 'NONE', *, *, #45, .T. ) ;
#95 = AXIS2_PLACEMENT_3D ( 'NONE', #37, #124, #265 ) ;
#96 = CLOSED_SHELL ( 'NONE', ( #141, #61, #32, #218, #201, #198, #35 ) ) ;
#97 = PRODUCT_DEFINITION ( 'UNKNOWN', '', #117, #3 ) ;
#98 = CARTESIAN_POINT ( 'NONE',  ( -3.110602869834279232E-15, -25.40000000000001279, -2.997414779931970141 ) ) ;
#99 = EDGE_LOOP ( 'NONE', ( #22, #5 ) ) ;
#100 = ORIENTED_EDGE ( 'NONE', *, *, #66, .T. ) ;
#101 = DIRECTION ( 'NONE',  ( -1.000000000000000000, 1.224646799147353207E-16, 0.0000000000000000000 ) ) ;
#102 = AXIS2_PLACEMENT_3D ( 'NONE', #16, #19, #245 ) ;
#103 = CARTESIAN_POINT ( 'NONE',  ( 0.0000000000000000000, 0.0000000000000000000, 0.0000000000000000000 ) ) ;
#104 = DIRECTION ( 'NONE',  ( -1.224646799147353207E-16, -1.000000000000000000, 0.0000000000000000000 ) ) ;
#105 = PERSON_AND_ORGANIZATION ( #46, #14 ) ;
#106 = ORIENTED_EDGE ( 'NONE', *, *, #31, .T. ) ;
#107 = DIRECTION ( 'NONE',  ( 1.000000000000000000, 0.0000000000000000000, 0.0000000000000000000 ) ) ;
#108 = LOCAL_TIME ( 15, 26, 14.00000000000000000, #154 ) ;
#109 = CIRCLE ( 'NONE', #145, 25.39999999999999503 ) ;
#110 = VERTEX_POINT ( 'NONE', #82 ) ;
#111 = CC_DESIGN_PERSON_AND_ORGANIZATION_ASSIGNMENT ( #105, #119, ( #97 ) ) ;
#112 = CYLINDRICAL_SURFACE ( 'NONE', #13, 25.39999999999999503 ) ;
#113 = ORIENTED_EDGE ( 'NONE', *, *, #31, .F. ) ;
#114 = EDGE_CURVE ( 'NONE', #110, #222, #91, .T. ) ;
#115 =( NAMED_UNIT ( * ) SI_UNIT ( $, .STERADIAN. ) SOLID_ANGLE_UNIT ( ) );
#116 = VERTEX_POINT ( 'NONE', #98 ) ;
#117 = PRODUCT_DEFINITION_FORMATION_WITH_SPECIFIED_SOURCE ( 'ANY', '', #130, .NOT_KNOWN. ) ;
#118 = DIRECTION ( 'NONE',  ( -0.0000000000000000000, -0.0000000000000000000, 1.000000000000000000 ) ) ;
#119 = PERSON_AND_ORGANIZATION_ROLE ( 'creator' ) ;
#120 = AXIS2_PLACEMENT_3D ( 'NONE', #181, #164, #60 ) ;
#121 = VERTEX_POINT ( 'NONE', #143 ) ;
#122 = APPROVAL_PERSON_ORGANIZATION ( #250, #57, #29 ) ;
#123 = CIRCLE ( 'NONE', #7, 25.15000000000000568 ) ;
#124 = DIRECTION ( 'NONE',  ( -1.000000000000000000, 0.0000000000000000000, 0.0000000000000000000 ) ) ;
#125 = DIRECTION ( 'NONE',  ( -0.0000000000000000000, -0.0000000000000000000, 1.000000000000000000 ) ) ;
#126 = DIRECTION ( 'NONE',  ( 0.0000000000000000000, 0.0000000000000000000, -1.000000000000000000 ) ) ;
#127 = DIRECTION ( 'NONE',  ( 1.000000000000000000, 0.0000000000000000000, 0.0000000000000000000 ) ) ;
#128 = AXIS2_PLACEMENT_3D ( 'NONE', #259, #264, #242 ) ;
#129 = LINE ( 'NONE', #186, #33 ) ;
#130 = PRODUCT ( 'TTN188099-E0W', 'TTN188099-E0W', '', ( #254 ) ) ;
#131 = SECURITY_CLASSIFICATION ( '', '', #137 ) ;
#132 = CIRCLE ( 'NONE', #128, 25.39999999999998437 ) ;
#133 = AXIS2_PLACEMENT_3D ( 'NONE', #203, #125, #167 ) ;
#134 = DIRECTION ( 'NONE',  ( -1.000000000000000000, 0.0000000000000000000, -0.0000000000000000000 ) ) ;
#135 = PERSON_AND_ORGANIZATION_ROLE ( 'design_supplier' ) ;
#136 = ORIENTED_EDGE ( 'NONE', *, *, #200, .F. ) ;
#137 = SECURITY_CLASSIFICATION_LEVEL ( 'unclassified' ) ;
#138 = CC_DESIGN_PERSON_AND_ORGANIZATION_ASSIGNMENT ( #144, #195, ( #117 ) ) ;
#139 = DATE_AND_TIME ( #93, #192 ) ;
#140 = EDGE_CURVE ( 'NONE', #216, #116, #148, .T. ) ;
#141 = ADVANCED_FACE ( 'NONE', ( #81 ), #17, .T. ) ;
#142 = DIRECTION ( 'NONE',  ( 0.0000000000000000000, 0.0000000000000000000, -1.000000000000000000 ) ) ;
#143 = CARTESIAN_POINT ( 'NONE',  ( 0.0000000000000000000, 25.40000000000001279, -2.997414779931970141 ) ) ;
#144 = PERSON_AND_ORGANIZATION ( #46, #14 ) ;
#145 = AXIS2_PLACEMENT_3D ( 'NONE', #270, #142, #67 ) ;
#146 = ORIENTED_EDGE ( 'NONE', *, *, #140, .F. ) ;
#147 = DATE_AND_TIME ( #4, #43 ) ;
#148 = CIRCLE ( 'NONE', #170, 130.1500000000000057 ) ;
#149 = CC_DESIGN_APPROVAL ( #263, ( #117 ) ) ;
#150 = DATE_AND_TIME ( #208, #205 ) ;
#151 = DIRECTION ( 'NONE',  ( -0.0000000000000000000, -0.0000000000000000000, 1.000000000000000000 ) ) ;
#152 = VERTEX_POINT ( 'NONE', #269 ) ;
#153 = AXIS2_PLACEMENT_3D ( 'NONE', #184, #84, #228 ) ;
#154 = COORDINATED_UNIVERSAL_TIME_OFFSET ( 5, 0, .BEHIND. ) ;
#155 = CARTESIAN_POINT ( 'NONE',  ( -25.15000000000000568, 0.0000000000000000000, 0.0000000000000000000 ) ) ;
#156 = APPLICATION_PROTOCOL_DEFINITION ( 'international standard', 'config_control_design', 1994, #30 ) ;
#157 = ORIENTED_EDGE ( 'NONE', *, *, #214, .T. ) ;
#158 = APPLICATION_CONTEXT ( 'configuration controlled 3d designs of mechanical parts and assemblies' ) ;
#159 = PERSON_AND_ORGANIZATION_ROLE ( 'design_owner' ) ;
#160 = CALENDAR_DATE ( 2019, 16, 12 ) ;
#161 = CARTESIAN_POINT ( 'NONE',  ( -25.15000000000000568, 0.0000000000000000000, 0.0000000000000000000 ) ) ;
#162 = CC_DESIGN_PERSON_AND_ORGANIZATION_ASSIGNMENT ( #48, #194, ( #131 ) ) ;
#163 = DIRECTION ( 'NONE',  ( -0.7071067811865525687, 0.0000000000000000000, -0.7071067811865425767 ) ) ;
#164 = DIRECTION ( 'NONE',  ( -0.0000000000000000000, -0.0000000000000000000, 1.000000000000000000 ) ) ;
#165 = CYLINDRICAL_SURFACE ( 'NONE', #271, 25.39999999999999503 ) ;
#166 = CARTESIAN_POINT ( 'NONE',  ( 0.0000000000000000000, 0.0000000000000000000, 124.6500000000000057 ) ) ;
#167 = DIRECTION ( 'NONE',  ( 1.000000000000000000, 0.0000000000000000000, 0.0000000000000000000 ) ) ;
#168 = CARTESIAN_POINT ( 'NONE',  ( 0.0000000000000000000, 0.0000000000000000000, 0.0000000000000000000 ) ) ;
#169 = VECTOR ( 'NONE', #163, 999.9999999999998863 ) ;
#170 = AXIS2_PLACEMENT_3D ( 'NONE', #166, #101, #104 ) ;
#171 = ORIENTED_EDGE ( 'NONE', *, *, #140, .T. ) ;
#172 = EDGE_LOOP ( 'NONE', ( #231, #215, #157, #267, #11 ) ) ;
#173 = ORIENTED_EDGE ( 'NONE', *, *, #8, .T. ) ;
#174 = DIRECTION ( 'NONE',  ( -0.0000000000000000000, -0.0000000000000000000, 1.000000000000000000 ) ) ;
#175 = PRODUCT_RELATED_PRODUCT_CATEGORY ( 'detail', '', ( #130 ) ) ;
#176 = DIRECTION ( 'NONE',  ( 1.000000000000000000, 0.0000000000000000000, 0.0000000000000000000 ) ) ;
#177 =( LENGTH_UNIT ( ) NAMED_UNIT ( * ) SI_UNIT ( .MILLI., .METRE. ) );
#178 = VECTOR ( 'NONE', #226, 1000.000000000000000 ) ;
#179 = APPROVAL ( #53, 'UNSPECIFIED' ) ;
#180 = DIRECTION ( 'NONE',  ( 0.7071067811865525687, 8.659560562354994488E-17, -0.7071067811865425767 ) ) ;
#181 = CARTESIAN_POINT ( 'NONE',  ( 0.0000000000000000000, 0.0000000000000000000, 0.0000000000000000000 ) ) ;
#182 = CC_DESIGN_APPROVAL ( #57, ( #131 ) ) ;
#183 = CIRCLE ( 'NONE', #120, 25.15000000000000568 ) ;
#184 = CARTESIAN_POINT ( 'NONE',  ( 0.0000000000000000000, 0.0000000000000000000, -0.2499999999999863443 ) ) ;
#185 = APPROVAL_DATE_TIME ( #139, #57 ) ;
#186 = CARTESIAN_POINT ( 'NONE',  ( -25.39999999999999503, 3.110602869834276471E-15, 0.0000000000000000000 ) ) ;
#187 = CC_DESIGN_PERSON_AND_ORGANIZATION_ASSIGNMENT ( #1, #159, ( #130 ) ) ;
#188 = SPHERICAL_SURFACE ( 'NONE', #102, 130.1500000000000057 ) ;
#189 = ORIENTED_EDGE ( 'NONE', *, *, #114, .T. ) ;
#190 = PRODUCT_DEFINITION_SHAPE ( 'NONE', 'NONE',  #97 ) ;
#191 = CC_DESIGN_PERSON_AND_ORGANIZATION_ASSIGNMENT ( #230, #135, ( #117 ) ) ;
#192 = LOCAL_TIME ( 15, 26, 14.00000000000000000, #90 ) ;
#193 = EDGE_CURVE ( 'NONE', #216, #121, #62, .T. ) ;
#194 = PERSON_AND_ORGANIZATION_ROLE ( 'classification_officer' ) ;
#195 = PERSON_AND_ORGANIZATION_ROLE ( 'creator' ) ;
#196 = FACE_OUTER_BOUND ( 'NONE', #172, .T. ) ;
#197 = CARTESIAN_POINT ( 'NONE',  ( 25.39999999999998437, 0.0000000000000000000, -2.997414779931983908 ) ) ;
#198 = ADVANCED_FACE ( 'NONE', ( #88 ), #188, .T. ) ;
#199 =( NAMED_UNIT ( * ) PLANE_ANGLE_UNIT ( ) SI_UNIT ( $, .RADIAN. ) );
#200 = EDGE_CURVE ( 'NONE', #152, #222, #247, .T. ) ;
#201 = ADVANCED_FACE ( 'NONE', ( #77 ), #165, .T. ) ;
#202 = CIRCLE ( 'NONE', #50, 25.39999999999998437 ) ;
#203 = CARTESIAN_POINT ( 'NONE',  ( 0.0000000000000000000, 0.0000000000000000000, -2.997414779931983908 ) ) ;
#204 = DIRECTION ( 'NONE',  ( 1.000000000000000000, 0.0000000000000000000, 0.0000000000000000000 ) ) ;
#205 = LOCAL_TIME ( 15, 26, 14.00000000000000000, #233 ) ;
#206 = VERTEX_POINT ( 'NONE', #251 ) ;
#207 = CARTESIAN_POINT ( 'NONE',  ( 0.0000000000000000000, 0.0000000000000000000, 0.0000000000000000000 ) ) ;
#208 = CALENDAR_DATE ( 2019, 16, 12 ) ;
#209 = ORIENTED_EDGE ( 'NONE', *, *, #89, .F. ) ;
#210 = APPROVAL_DATE_TIME ( #241, #263 ) ;
#211 = VERTEX_POINT ( 'NONE', #155 ) ;
#212 = DIRECTION ( 'NONE',  ( 0.0000000000000000000, 0.0000000000000000000, -1.000000000000000000 ) ) ;
#213 = PERSON_AND_ORGANIZATION ( #46, #14 ) ;
#214 = EDGE_CURVE ( 'NONE', #206, #152, #129, .T. ) ;
#215 = ORIENTED_EDGE ( 'NONE', *, *, #15, .T. ) ;
#216 = VERTEX_POINT ( 'NONE', #23 ) ;
#217 = CIRCLE ( 'NONE', #79, 25.39999999999998437 ) ;
#218 = ADVANCED_FACE ( 'NONE', ( #75 ), #21, .F. ) ;
#219 = DIRECTION ( 'NONE',  ( 1.000000000000000000, 0.0000000000000000000, 0.0000000000000000000 ) ) ;
#220 = EDGE_CURVE ( 'NONE', #211, #110, #123, .T. ) ;
#221 = COORDINATED_UNIVERSAL_TIME_OFFSET ( 5, 0, .BEHIND. ) ;
#222 = VERTEX_POINT ( 'NONE', #26 ) ;
#223 = CARTESIAN_POINT ( 'NONE',  ( 0.0000000000000000000, 0.0000000000000000000, 0.0000000000000000000 ) ) ;
#224 = DIRECTION ( 'NONE',  ( -0.0000000000000000000, -0.0000000000000000000, 1.000000000000000000 ) ) ;
#225 = ORIENTED_EDGE ( 'NONE', *, *, #114, .F. ) ;
#226 = DIRECTION ( 'NONE',  ( -0.0000000000000000000, -0.0000000000000000000, 1.000000000000000000 ) ) ;
#227 = AXIS2_PLACEMENT_3D ( 'NONE', #207, #126, #42 ) ;
#228 = DIRECTION ( 'NONE',  ( -1.000000000000000000, 0.0000000000000000000, 0.0000000000000000000 ) ) ;
#229 =( GEOMETRIC_REPRESENTATION_CONTEXT ( 3 ) GLOBAL_UNCERTAINTY_ASSIGNED_CONTEXT ( ( #36 ) ) GLOBAL_UNIT_ASSIGNED_CONTEXT ( ( #177, #199, #115 ) ) REPRESENTATION_CONTEXT ( 'NONE', 'WORKASPACE' ) );
#230 = PERSON_AND_ORGANIZATION ( #46, #14 ) ;
#231 = ORIENTED_EDGE ( 'NONE', *, *, #89, .T. ) ;
#232 = AXIS2_PLACEMENT_3D ( 'NONE', #68, #127, #70 ) ;
#233 = COORDINATED_UNIVERSAL_TIME_OFFSET ( 5, 0, .BEHIND. ) ;
#234 = CARTESIAN_POINT ( 'NONE',  ( 0.0000000000000000000, 0.0000000000000000000, 0.0000000000000000000 ) ) ;
#235 = ORIENTED_EDGE ( 'NONE', *, *, #220, .F. ) ;
#236 = DATE_TIME_ROLE ( 'creation_date' ) ;
#237 = ORIENTED_EDGE ( 'NONE', *, *, #18, .F. ) ;
#238 = CC_DESIGN_SECURITY_CLASSIFICATION ( #131, ( #117 ) ) ;
#239 = CARTESIAN_POINT ( 'NONE',  ( 0.0000000000000000000, 0.0000000000000000000, 0.0000000000000000000 ) ) ;
#240 = CARTESIAN_POINT ( 'NONE',  ( 0.0000000000000000000, 0.0000000000000000000, -2.997414779931983908 ) ) ;
#241 = DATE_AND_TIME ( #85, #24 ) ;
#242 = DIRECTION ( 'NONE',  ( 1.000000000000000000, 0.0000000000000000000, 0.0000000000000000000 ) ) ;
#243 = CARTESIAN_POINT ( 'NONE',  ( 25.39999999999999503, 0.0000000000000000000, 0.0000000000000000000 ) ) ;
#244 = DIRECTION ( 'NONE',  ( 1.000000000000000000, 0.0000000000000000000, 0.0000000000000000000 ) ) ;
#245 = DIRECTION ( 'NONE',  ( 0.0000000000000000000, 1.000000000000000000, 0.0000000000000000000 ) ) ;
#246 = CC_DESIGN_DATE_AND_TIME_ASSIGNMENT ( #54, #236, ( #97 ) ) ;
#247 = CIRCLE ( 'NONE', #153, 25.39999999999999503 ) ;
#248 = LINE ( 'NONE', #161, #169 ) ;
#249 = MANIFOLD_SOLID_BREP ( 'TTN188107-1-solid1', #96 ) ;
#250 = PERSON_AND_ORGANIZATION ( #46, #14 ) ;
#251 = CARTESIAN_POINT ( 'NONE',  ( -25.39999999999998437, 3.110602869834276076E-15, -2.997414779931983908 ) ) ;
#252 = LINE ( 'NONE', #243, #178 ) ;
#253 = VERTEX_POINT ( 'NONE', #197 ) ;
#254 = MECHANICAL_CONTEXT ( 'NONE', #30, 'mechanical' ) ;
#255 = SHAPE_DEFINITION_REPRESENTATION ( #190, #59 ) ;
#256 = ORIENTED_EDGE ( 'NONE', *, *, #66, .F. ) ;
#257 = DIRECTION ( 'NONE',  ( 0.0000000000000000000, 0.0000000000000000000, 1.000000000000000000 ) ) ;
#258 = EDGE_LOOP ( 'NONE', ( #225, #235, #106, #256 ) ) ;
#259 = CARTESIAN_POINT ( 'NONE',  ( 0.0000000000000000000, 0.0000000000000000000, -2.997414779931983908 ) ) ;
#260 = APPROVAL_ROLE ( '' ) ;
#261 = APPROVAL_DATE_TIME ( #147, #179 ) ;
#262 = CONICAL_SURFACE ( 'NONE', #227, 25.15000000000000568, 0.7853981633974552734 ) ;
#263 = APPROVAL ( #12, 'UNSPECIFIED' ) ;
#264 = DIRECTION ( 'NONE',  ( -0.0000000000000000000, -0.0000000000000000000, 1.000000000000000000 ) ) ;
#265 = DIRECTION ( 'NONE',  ( 0.0000000000000000000, 1.000000000000000000, 0.0000000000000000000 ) ) ;
#266 = PERSON_AND_ORGANIZATION ( #46, #14 ) ;
#267 = ORIENTED_EDGE ( 'NONE', *, *, #200, .T. ) ;
#268 = DIRECTION ( 'NONE',  ( 0.0000000000000000000, 0.0000000000000000000, -1.000000000000000000 ) ) ;
#269 = CARTESIAN_POINT ( 'NONE',  ( -25.39999999999999503, 3.110602869834276471E-15, -0.2499999999999863443 ) ) ;
#270 = CARTESIAN_POINT ( 'NONE',  ( 0.0000000000000000000, 0.0000000000000000000, -0.2499999999999863443 ) ) ;
#271 = AXIS2_PLACEMENT_3D ( 'NONE', #103, #151, #107 ) ;
ENDSEC;
END-ISO-10303-21;
