ISO-10303-21;
HEADER;
FILE_DESCRIPTION (( 'STEP AP203' ),
    '1' );
FILE_NAME ('4301-E0W.STEP',
    '2015-05-29T14:17:25',
    ( 'admin' ),
    ( '' ),
    'SwSTEP 2.0',
    'SolidWorks 2014',
    '' );
FILE_SCHEMA (( 'CONFIG_CONTROL_DESIGN' ));
ENDSEC;

DATA;
#1 = ORIENTED_EDGE ( 'NONE', *, *, #160, .F. ) ;
#2 = AXIS2_PLACEMENT_3D ( 'NONE', #230, #53, #289 ) ;
#3 = CARTESIAN_POINT ( 'NONE',  ( -1.850000000000000100, 0.0000000000000000000, 0.0000000000000000000 ) ) ;
#4 = EDGE_CURVE ( 'NONE', #189, #30, #82, .T. ) ;
#5 = FACE_OUTER_BOUND ( 'NONE', #157, .T. ) ;
#6 = APPROVAL_STATUS ( 'not_yet_approved' ) ;
#7 = AXIS2_PLACEMENT_3D ( 'NONE', #237, #215, #170 ) ;
#8 = CC_DESIGN_PERSON_AND_ORGANIZATION_ASSIGNMENT ( #190, #127, ( #228 ) ) ;
#9 = ORIENTED_EDGE ( 'NONE', *, *, #96, .T. ) ;
#10 = ORIENTED_EDGE ( 'NONE', *, *, #132, .F. ) ;
#11 = ORIENTED_EDGE ( 'NONE', *, *, #132, .T. ) ;
#12 = AXIS2_PLACEMENT_3D ( 'NONE', #113, #298, #37 ) ;
#13 = ORIENTED_EDGE ( 'NONE', *, *, #74, .F. ) ;
#14 = AXIS2_PLACEMENT_3D ( 'NONE', #105, #43, #214 ) ;
#15 = PRODUCT ( '4301-E0W', '4301-E0W', '', ( #52 ) ) ;
#16 = DIRECTION ( 'NONE',  ( 1.000000000000000000, 0.0000000000000000000, 0.0000000000000000000 ) ) ;
#17 = CARTESIAN_POINT ( 'NONE',  ( 1.850000000000000100, 0.0000000000000000000, 0.0000000000000000000 ) ) ;
#18 = AXIS2_PLACEMENT_3D ( 'NONE', #70, #295, #23 ) ;
#19 = CC_DESIGN_DATE_AND_TIME_ASSIGNMENT ( #165, #77, ( #234 ) ) ;
#20 = CARTESIAN_POINT ( 'NONE',  ( 0.9000000000001229200, 0.0000000000000000000, 0.0000000000000000000 ) ) ;
#21 = ORIENTED_EDGE ( 'NONE', *, *, #279, .F. ) ;
#22 = VECTOR ( 'NONE', #97, 1000.000000000000000 ) ;
#23 = DIRECTION ( 'NONE',  ( 0.0000000000000000000, 0.0000000000000000000, 1.000000000000000000 ) ) ;
#24 = CARTESIAN_POINT ( 'NONE',  ( 1.163713463258442300, 0.0000000000000000000, 25.15044823366948600 ) ) ;
#25 = TOROIDAL_SURFACE ( 'NONE', #293, 0.02972443591000434300, 460.1000000000000800 ) ;
#26 = DESIGN_CONTEXT ( 'detailed design', #90, 'design' ) ;
#27 = ADVANCED_FACE ( 'NONE', ( #169 ), #183, .T. ) ;
#28 = AXIS2_PLACEMENT_3D ( 'NONE', #100, #185, #171 ) ;
#29 = LINE ( 'NONE', #41, #136 ) ;
#30 = VERTEX_POINT ( 'NONE', #24 ) ;
#31 = EDGE_CURVE ( 'NONE', #193, #189, #54, .T. ) ;
#32 = DIRECTION ( 'NONE',  ( 1.000000000000000000, 0.0000000000000000000, 0.0000000000000000000 ) ) ;
#33 = CARTESIAN_POINT ( 'NONE',  ( -1.850000000000000100, 3.095294784844936500E-015, 25.14999999999999900 ) ) ;
#34 = ORIENTED_EDGE ( 'NONE', *, *, #42, .F. ) ;
#35 = ADVANCED_FACE ( 'NONE', ( #153 ), #91, .F. ) ;
#36 = AXIS2_PLACEMENT_3D ( 'NONE', #238, #176, #216 ) ;
#37 = DIRECTION ( 'NONE',  ( 0.0000000000000000000, 0.0000000000000000000, -1.000000000000000000 ) ) ;
#38 = VERTEX_POINT ( 'NONE', #198 ) ;
#39 = ORGANIZATION ( 'UNSPECIFIED', 'UNSPECIFIED', '' ) ;
#40 = CC_DESIGN_PERSON_AND_ORGANIZATION_ASSIGNMENT ( #191, #297, ( #228 ) ) ;
#41 = CARTESIAN_POINT ( 'NONE',  ( -1.850000000000000100, 0.0000000000000000000, -25.14999999999999900 ) ) ;
#42 = EDGE_CURVE ( 'NONE', #285, #102, #233, .T. ) ;
#43 = DIRECTION ( 'NONE',  ( 1.000000000000000000, 0.0000000000000000000, 0.0000000000000000000 ) ) ;
#44 = CIRCLE ( 'NONE', #14, 25.40000000000002000 ) ;
#45 = LINE ( 'NONE', #145, #141 ) ;
#46 = AXIS2_PLACEMENT_3D ( 'NONE', #20, #232, #262 ) ;
#47 = LINE ( 'NONE', #276, #254 ) ;
#48 = CARTESIAN_POINT ( 'NONE',  ( 0.9000000000001229200, 3.110602869834279600E-015, -25.40000000000002000 ) ) ;
#49 = EDGE_LOOP ( 'NONE', ( #34, #271, #225, #272 ) ) ;
#50 = ORIENTED_EDGE ( 'NONE', *, *, #288, .F. ) ;
#51 = ORIENTED_EDGE ( 'NONE', *, *, #73, .T. ) ;
#52 = MECHANICAL_CONTEXT ( 'NONE', #273, 'mechanical' ) ;
#53 = DIRECTION ( 'NONE',  ( 1.000000000000000000, 0.0000000000000000000, 0.0000000000000000000 ) ) ;
#54 = CIRCLE ( 'NONE', #36, 460.1000000000000800 ) ;
#55 = CARTESIAN_POINT ( 'NONE',  ( -1.850000000000000100, 0.0000000000000000000, 0.0000000000000000000 ) ) ;
#56 = APPLICATION_PROTOCOL_DEFINITION ( 'international standard', 'config_control_design', 1994, #273 ) ;
#57 = AXIS2_PLACEMENT_3D ( 'NONE', #123, #32, #161 ) ;
#58 = CIRCLE ( 'NONE', #18, 25.40000000000002000 ) ;
#59 = CIRCLE ( 'NONE', #247, 25.40000000000002000 ) ;
#60 = AXIS2_PLACEMENT_3D ( 'NONE', #213, #92, #212 ) ;
#61 = ORIENTED_EDGE ( 'NONE', *, *, #74, .T. ) ;
#62 = ORIENTED_EDGE ( 'NONE', *, *, #42, .T. ) ;
#63 = CC_DESIGN_APPROVAL ( #106, ( #228 ) ) ;
#64 = PRODUCT_RELATED_PRODUCT_CATEGORY ( 'detail', '', ( #15 ) ) ;
#65 = PERSON_AND_ORGANIZATION_ROLE ( 'design_owner' ) ;
#66 = ORIENTED_EDGE ( 'NONE', *, *, #96, .F. ) ;
#67 = PERSON_AND_ORGANIZATION ( #229, #39 ) ;
#68 = EDGE_CURVE ( 'NONE', #102, #285, #79, .T. ) ;
#69 = ADVANCED_FACE ( 'NONE', ( #299 ), #199, .T. ) ;
#70 = CARTESIAN_POINT ( 'NONE',  ( 0.9000000000001229200, 0.0000000000000000000, 0.0000000000000000000 ) ) ;
#71 = ORIENTED_EDGE ( 'NONE', *, *, #76, .T. ) ;
#72 = EDGE_LOOP ( 'NONE', ( #107, #71, #112, #10 ) ) ;
#73 = EDGE_CURVE ( 'NONE', #30, #163, #45, .T. ) ;
#74 = EDGE_CURVE ( 'NONE', #30, #189, #98, .T. ) ;
#75 = EDGE_LOOP ( 'NONE', ( #263, #201, #11, #124 ) ) ;
#76 = EDGE_CURVE ( 'NONE', #277, #284, #180, .T. ) ;
#77 = DATE_TIME_ROLE ( 'classification_date' ) ;
#78 = CONICAL_SURFACE ( 'NONE', #12, 25.14999999999999900, 0.7853981633974691500 ) ;
#79 = CIRCLE ( 'NONE', #178, 25.14999999999999900 ) ;
#80 = PRODUCT_DEFINITION_SHAPE ( 'NONE', 'NONE',  #85 ) ;
#81 = DIRECTION ( 'NONE',  ( -1.000000000000000000, -0.0000000000000000000, -0.0000000000000000000 ) ) ;
#82 = CIRCLE ( 'NONE', #57, 25.15044823367014000 ) ;
#83 = CIRCLE ( 'NONE', #95, 460.1000000000000800 ) ;
#84 = DIRECTION ( 'NONE',  ( 0.0000000000000000000, 0.0000000000000000000, 1.000000000000000000 ) ) ;
#85 = PRODUCT_DEFINITION ( 'UNKNOWN', '', #228, #26 ) ;
#86 = LINE ( 'NONE', #140, #292 ) ;
#87 = CARTESIAN_POINT ( 'NONE',  ( 0.9000000000001229200, 3.110602869834279600E-015, -25.40000000000002000 ) ) ;
#88 = APPROVAL_STATUS ( 'not_yet_approved' ) ;
#89 = ORIENTED_EDGE ( 'NONE', *, *, #68, .F. ) ;
#90 = APPLICATION_CONTEXT ( 'configuration controlled 3d designs of mechanical parts and assemblies' ) ;
#91 = PLANE ( 'NONE',  #166 ) ;
#92 = DIRECTION ( 'NONE',  ( 1.000000000000000000, 0.0000000000000000000, 0.0000000000000000000 ) ) ;
#93 = ORIENTED_EDGE ( 'NONE', *, *, #118, .T. ) ;
#94 = CARTESIAN_POINT ( 'NONE',  ( -458.2499990398369500, 0.0000000000000000000, 0.0000000000000000000 ) ) ;
#95 = AXIS2_PLACEMENT_3D ( 'NONE', #283, #264, #267 ) ;
#96 = EDGE_CURVE ( 'NONE', #193, #30, #83, .T. ) ;
#97 = DIRECTION ( 'NONE',  ( -0.7263404111839703000, 8.417427901912666600E-017, -0.6873351490220043200 ) ) ;
#98 = CIRCLE ( 'NONE', #28, 25.15044823367014000 ) ;
#99 = CYLINDRICAL_SURFACE ( 'NONE', #270, 25.40000000000002000 ) ;
#100 = CARTESIAN_POINT ( 'NONE',  ( 1.163713463258442300, 0.0000000000000000000, 0.0000000000000000000 ) ) ;
#101 = CC_DESIGN_DATE_AND_TIME_ASSIGNMENT ( #235, #144, ( #85 ) ) ;
#102 = VERTEX_POINT ( 'NONE', #184 ) ;
#103 = VECTOR ( 'NONE', #108, 1000.000000000000000 ) ;
#104 = CARTESIAN_POINT ( 'NONE',  ( 0.0000000000000000000, 0.0000000000000000000, 0.0000000000000000000 ) ) ;
#105 = CARTESIAN_POINT ( 'NONE',  ( -1.599999999999989400, 0.0000000000000000000, 0.0000000000000000000 ) ) ;
#106 = APPROVAL ( #6, 'UNSPECIFIED' ) ;
#107 = ORIENTED_EDGE ( 'NONE', *, *, #155, .T. ) ;
#108 = DIRECTION ( 'NONE',  ( -1.000000000000000000, -0.0000000000000000000, -0.0000000000000000000 ) ) ;
#109 = APPROVAL ( #197, 'UNSPECIFIED' ) ;
#110 = SECURITY_CLASSIFICATION_LEVEL ( 'unclassified' ) ;
#111 = PERSON_AND_ORGANIZATION_ROLE ( 'creator' ) ;
#112 = ORIENTED_EDGE ( 'NONE', *, *, #116, .T. ) ;
#113 = CARTESIAN_POINT ( 'NONE',  ( -1.850000000000000100, 0.0000000000000000000, 0.0000000000000000000 ) ) ;
#114 = DIRECTION ( 'NONE',  ( 0.0000000000000000000, 0.0000000000000000000, 1.000000000000000000 ) ) ;
#115 = ADVANCED_FACE ( 'NONE', ( #5 ), #195, .T. ) ;
#116 = EDGE_CURVE ( 'NONE', #284, #38, #44, .T. ) ;
#117 = DIRECTION ( 'NONE',  ( 0.0000000000000000000, 0.0000000000000000000, -1.000000000000000000 ) ) ;
#118 = EDGE_CURVE ( 'NONE', #102, #284, #29, .T. ) ;
#119 = FACE_OUTER_BOUND ( 'NONE', #206, .T. ) ;
#120 = ORIENTED_EDGE ( 'NONE', *, *, #73, .F. ) ;
#121 = DIRECTION ( 'NONE',  ( -0.7263404111839703000, 0.0000000000000000000, 0.6873351490220043200 ) ) ;
#122 = APPROVAL_DATE_TIME ( #130, #125 ) ;
#123 = CARTESIAN_POINT ( 'NONE',  ( 1.163713463258442300, 0.0000000000000000000, 0.0000000000000000000 ) ) ;
#124 = ORIENTED_EDGE ( 'NONE', *, *, #160, .T. ) ;
#125 = APPROVAL ( #88, 'UNSPECIFIED' ) ;
#126 = CONICAL_SURFACE ( 'NONE', #46, 25.40000000000002000, 0.7578137800025351900 ) ;
#127 = PERSON_AND_ORGANIZATION_ROLE ( 'design_supplier' ) ;
#128 = CLOSED_SHELL ( 'NONE', ( #205, #286, #158, #137, #35, #69, #27, #115, #252 ) ) ;
#129 = CC_DESIGN_APPROVAL ( #125, ( #234 ) ) ;
#130 = DATE_AND_TIME ( #131, #133 ) ;
#131 = CALENDAR_DATE ( 2015, 29, 5 ) ;
#132 = EDGE_CURVE ( 'NONE', #163, #38, #86, .T. ) ;
#133 = LOCAL_TIME ( 10, 17, 25.00000000000000000, #139 ) ;
#134 = PERSON_AND_ORGANIZATION_ROLE ( 'classification_officer' ) ;
#135 = DIRECTION ( 'NONE',  ( -1.000000000000000000, -0.0000000000000000000, -0.0000000000000000000 ) ) ;
#136 = VECTOR ( 'NONE', #149, 1000.000000000000000 ) ;
#137 = ADVANCED_FACE ( 'NONE', ( #172 ), #99, .T. ) ;
#138 = DIRECTION ( 'NONE',  ( -1.000000000000000000, -0.0000000000000000000, -0.0000000000000000000 ) ) ;
#139 = COORDINATED_UNIVERSAL_TIME_OFFSET ( 5, 0, .BEHIND. ) ;
#140 = CARTESIAN_POINT ( 'NONE',  ( -1.850000000000000100, 0.0000000000000000000, 25.40000000000002000 ) ) ;
#141 = VECTOR ( 'NONE', #121, 1000.000000000000000 ) ;
#142 = DIRECTION ( 'NONE',  ( 0.0000000000000000000, 0.0000000000000000000, 1.000000000000000000 ) ) ;
#143 = DIRECTION ( 'NONE',  ( -1.000000000000000000, -0.0000000000000000000, -0.0000000000000000000 ) ) ;
#144 = DATE_TIME_ROLE ( 'creation_date' ) ;
#145 = CARTESIAN_POINT ( 'NONE',  ( 0.9000000000001229200, 0.0000000000000000000, 25.40000000000002000 ) ) ;
#146 = ORIENTED_EDGE ( 'NONE', *, *, #155, .F. ) ;
#147 = CARTESIAN_POINT ( 'NONE',  ( -1.850000000000000100, 0.0000000000000000000, 0.0000000000000000000 ) ) ;
#148 = APPROVAL_PERSON_ORGANIZATION ( #154, #125, #219 ) ;
#149 = DIRECTION ( 'NONE',  ( 0.7071067811865328100, 0.0000000000000000000, -0.7071067811865622300 ) ) ;
#150 = APPROVAL_ROLE ( '' ) ;
#151 = CARTESIAN_POINT ( 'NONE',  ( -1.599999999999989400, 3.110602869834279600E-015, -25.40000000000002000 ) ) ;
#152 = AXIS2_PLACEMENT_3D ( 'NONE', #147, #135, #114 ) ;
#153 = FACE_OUTER_BOUND ( 'NONE', #291, .T. ) ;
#154 = PERSON_AND_ORGANIZATION ( #229, #39 ) ;
#155 = EDGE_CURVE ( 'NONE', #163, #277, #59, .T. ) ;
#156 = AXIS2_PLACEMENT_3D ( 'NONE', #104, #181, #16 ) ;
#157 = EDGE_LOOP ( 'NONE', ( #50, #13, #51, #246 ) ) ;
#158 = ADVANCED_FACE ( 'NONE', ( #119 ), #25, .T. ) ;
#159 = PERSON_AND_ORGANIZATION ( #229, #39 ) ;
#160 = EDGE_CURVE ( 'NONE', #38, #284, #239, .T. ) ;
#161 = DIRECTION ( 'NONE',  ( 0.0000000000000000000, 0.0000000000000000000, 1.000000000000000000 ) ) ;
#162 = EDGE_LOOP ( 'NONE', ( #202, #241, #146, #120 ) ) ;
#163 = VERTEX_POINT ( 'NONE', #218 ) ;
#164 = ADVANCED_BREP_SHAPE_REPRESENTATION ( '4301-E0W', ( #249, #156 ), #204 ) ;
#165 = DATE_AND_TIME ( #174, #179 ) ;
#166 = AXIS2_PLACEMENT_3D ( 'NONE', #3, #208, #117 ) ;
#167 = APPROVAL_ROLE ( '' ) ;
#168 = ORIENTED_EDGE ( 'NONE', *, *, #31, .F. ) ;
#169 = FACE_OUTER_BOUND ( 'NONE', #265, .T. ) ;
#170 = DIRECTION ( 'NONE',  ( 0.0000000000000000000, 0.0000000000000000000, 1.000000000000000000 ) ) ;
#171 = DIRECTION ( 'NONE',  ( 0.0000000000000000000, 0.0000000000000000000, 1.000000000000000000 ) ) ;
#172 = FACE_OUTER_BOUND ( 'NONE', #72, .T. ) ;
#173 = DIRECTION ( 'NONE',  ( -1.000000000000000000, -0.0000000000000000000, -0.0000000000000000000 ) ) ;
#174 = CALENDAR_DATE ( 2015, 29, 5 ) ;
#175 = AXIS2_PLACEMENT_3D ( 'NONE', #275, #260, #209 ) ;
#176 = DIRECTION ( 'NONE',  ( -0.0000000000000000000, 1.000000000000000000, 1.224646799147353200E-016 ) ) ;
#177 = SHAPE_DEFINITION_REPRESENTATION ( #80, #164 ) ;
#178 = AXIS2_PLACEMENT_3D ( 'NONE', #245, #81, #224 ) ;
#179 = LOCAL_TIME ( 10, 17, 25.00000000000000000, #186 ) ;
#180 = LINE ( 'NONE', #256, #103 ) ;
#181 = DIRECTION ( 'NONE',  ( 0.0000000000000000000, 0.0000000000000000000, 1.000000000000000000 ) ) ;
#182 = CC_DESIGN_PERSON_AND_ORGANIZATION_ASSIGNMENT ( #258, #111, ( #85 ) ) ;
#183 = TOROIDAL_SURFACE ( 'NONE', #200, 0.02972443591000434300, 460.1000000000000800 ) ;
#184 = CARTESIAN_POINT ( 'NONE',  ( -1.850000000000000100, 0.0000000000000000000, -25.14999999999999900 ) ) ;
#185 = DIRECTION ( 'NONE',  ( 1.000000000000000000, 0.0000000000000000000, 0.0000000000000000000 ) ) ;
#186 = COORDINATED_UNIVERSAL_TIME_OFFSET ( 5, 0, .BEHIND. ) ;
#187 =( NAMED_UNIT ( * ) PLANE_ANGLE_UNIT ( ) SI_UNIT ( $, .RADIAN. ) );
#188 = PERSON_AND_ORGANIZATION ( #229, #39 ) ;
#189 = VERTEX_POINT ( 'NONE', #296 ) ;
#190 = PERSON_AND_ORGANIZATION ( #229, #39 ) ;
#191 = PERSON_AND_ORGANIZATION ( #229, #39 ) ;
#192 = APPLICATION_PROTOCOL_DEFINITION ( 'international standard', 'config_control_design', 1994, #90 ) ;
#193 = VERTEX_POINT ( 'NONE', #17 ) ;
#194 = CC_DESIGN_APPROVAL ( #109, ( #85 ) ) ;
#195 = CONICAL_SURFACE ( 'NONE', #7, 25.40000000000002000, 0.7578137800025351900 ) ;
#196 = APPROVAL_DATE_TIME ( #203, #106 ) ;
#197 = APPROVAL_STATUS ( 'not_yet_approved' ) ;
#198 = CARTESIAN_POINT ( 'NONE',  ( -1.599999999999989400, 0.0000000000000000000, 25.40000000000002000 ) ) ;
#199 = CYLINDRICAL_SURFACE ( 'NONE', #152, 25.40000000000002000 ) ;
#200 = AXIS2_PLACEMENT_3D ( 'NONE', #94, #255, #84 ) ;
#201 = ORIENTED_EDGE ( 'NONE', *, *, #266, .T. ) ;
#202 = ORIENTED_EDGE ( 'NONE', *, *, #4, .F. ) ;
#203 = DATE_AND_TIME ( #207, #211 ) ;
#204 =( GEOMETRIC_REPRESENTATION_CONTEXT ( 3 ) GLOBAL_UNCERTAINTY_ASSIGNED_CONTEXT ( ( #242 ) ) GLOBAL_UNIT_ASSIGNED_CONTEXT ( ( #290, #187, #282 ) ) REPRESENTATION_CONTEXT ( 'NONE', 'WORKASPACE' ) );
#205 = ADVANCED_FACE ( 'NONE', ( #221 ), #223, .T. ) ;
#206 = EDGE_LOOP ( 'NONE', ( #66, #280, #226 ) ) ;
#207 = CALENDAR_DATE ( 2015, 29, 5 ) ;
#208 = DIRECTION ( 'NONE',  ( 1.000000000000000000, 0.0000000000000000000, 0.0000000000000000000 ) ) ;
#209 = DIRECTION ( 'NONE',  ( 0.0000000000000000000, 0.0000000000000000000, -1.000000000000000000 ) ) ;
#210 = ORIENTED_EDGE ( 'NONE', *, *, #68, .T. ) ;
#211 = LOCAL_TIME ( 10, 17, 25.00000000000000000, #222 ) ;
#212 = DIRECTION ( 'NONE',  ( 0.0000000000000000000, 0.0000000000000000000, -1.000000000000000000 ) ) ;
#213 = CARTESIAN_POINT ( 'NONE',  ( -1.599999999999989400, 0.0000000000000000000, 0.0000000000000000000 ) ) ;
#214 = DIRECTION ( 'NONE',  ( 0.0000000000000000000, 0.0000000000000000000, -1.000000000000000000 ) ) ;
#215 = DIRECTION ( 'NONE',  ( -1.000000000000000000, -0.0000000000000000000, -0.0000000000000000000 ) ) ;
#216 = DIRECTION ( 'NONE',  ( 0.0000000000000000000, -1.224646799147353200E-016, 1.000000000000000000 ) ) ;
#217 = CC_DESIGN_SECURITY_CLASSIFICATION ( #234, ( #228 ) ) ;
#218 = CARTESIAN_POINT ( 'NONE',  ( 0.9000000000001229200, 0.0000000000000000000, 25.40000000000002000 ) ) ;
#219 = APPROVAL_ROLE ( '' ) ;
#220 = CC_DESIGN_PERSON_AND_ORGANIZATION_ASSIGNMENT ( #188, #134, ( #234 ) ) ;
#221 = FACE_OUTER_BOUND ( 'NONE', #49, .T. ) ;
#222 = COORDINATED_UNIVERSAL_TIME_OFFSET ( 5, 0, .BEHIND. ) ;
#223 = CONICAL_SURFACE ( 'NONE', #2, 25.14999999999999900, 0.7853981633974691500 ) ;
#224 = DIRECTION ( 'NONE',  ( 0.0000000000000000000, 0.0000000000000000000, -1.000000000000000000 ) ) ;
#225 = ORIENTED_EDGE ( 'NONE', *, *, #116, .F. ) ;
#226 = ORIENTED_EDGE ( 'NONE', *, *, #4, .T. ) ;
#227 = APPROVAL_PERSON_ORGANIZATION ( #231, #106, #150 ) ;
#228 = PRODUCT_DEFINITION_FORMATION_WITH_SPECIFIED_SOURCE ( 'ANY', '', #15, .NOT_KNOWN. ) ;
#229 = PERSON ( 'UNSPECIFIED', 'UNSPECIFIED', 'UNSPECIFIED', ('UNSPECIFIED'), ('UNSPECIFIED'), ('UNSPECIFIED') ) ;
#230 = CARTESIAN_POINT ( 'NONE',  ( -1.850000000000000100, 0.0000000000000000000, 0.0000000000000000000 ) ) ;
#231 = PERSON_AND_ORGANIZATION ( #229, #39 ) ;
#232 = DIRECTION ( 'NONE',  ( -1.000000000000000000, -0.0000000000000000000, -0.0000000000000000000 ) ) ;
#233 = CIRCLE ( 'NONE', #175, 25.14999999999999900 ) ;
#234 = SECURITY_CLASSIFICATION ( '', '', #110 ) ;
#235 = DATE_AND_TIME ( #244, #248 ) ;
#236 = DIRECTION ( 'NONE',  ( 0.0000000000000000000, 0.0000000000000000000, 1.000000000000000000 ) ) ;
#237 = CARTESIAN_POINT ( 'NONE',  ( 0.9000000000001229200, 0.0000000000000000000, 0.0000000000000000000 ) ) ;
#238 = CARTESIAN_POINT ( 'NONE',  ( -458.2499990398369500, 3.640193529364746500E-018, -0.02972443591000434300 ) ) ;
#239 = CIRCLE ( 'NONE', #60, 25.40000000000002000 ) ;
#240 = CARTESIAN_POINT ( 'NONE',  ( -458.2499990398369500, 0.0000000000000000000, 0.0000000000000000000 ) ) ;
#241 = ORIENTED_EDGE ( 'NONE', *, *, #288, .T. ) ;
#242 = UNCERTAINTY_MEASURE_WITH_UNIT (LENGTH_MEASURE( 1.000000000000000100E-005 ), #290, 'distance_accuracy_value', 'NONE');
#243 = DIRECTION ( 'NONE',  ( 0.0000000000000000000, 0.0000000000000000000, 1.000000000000000000 ) ) ;
#244 = CALENDAR_DATE ( 2015, 29, 5 ) ;
#245 = CARTESIAN_POINT ( 'NONE',  ( -1.850000000000000100, 0.0000000000000000000, 0.0000000000000000000 ) ) ;
#246 = ORIENTED_EDGE ( 'NONE', *, *, #266, .F. ) ;
#247 = AXIS2_PLACEMENT_3D ( 'NONE', #261, #138, #243 ) ;
#248 = LOCAL_TIME ( 10, 17, 25.00000000000000000, #250 ) ;
#249 = MANIFOLD_SOLID_BREP ( '4301-001-1-solid1', #128 ) ;
#250 = COORDINATED_UNIVERSAL_TIME_OFFSET ( 5, 0, .BEHIND. ) ;
#251 = DIRECTION ( 'NONE',  ( -1.000000000000000000, -0.0000000000000000000, -0.0000000000000000000 ) ) ;
#252 = ADVANCED_FACE ( 'NONE', ( #253 ), #78, .T. ) ;
#253 = FACE_OUTER_BOUND ( 'NONE', #257, .T. ) ;
#254 = VECTOR ( 'NONE', #300, 1000.000000000000000 ) ;
#255 = DIRECTION ( 'NONE',  ( -1.000000000000000000, -0.0000000000000000000, -0.0000000000000000000 ) ) ;
#256 = CARTESIAN_POINT ( 'NONE',  ( -1.850000000000000100, 3.110602869834279600E-015, -25.40000000000002000 ) ) ;
#257 = EDGE_LOOP ( 'NONE', ( #21, #89, #93, #1 ) ) ;
#258 = PERSON_AND_ORGANIZATION ( #229, #39 ) ;
#259 = APPROVAL_DATE_TIME ( #268, #109 ) ;
#260 = DIRECTION ( 'NONE',  ( -1.000000000000000000, -0.0000000000000000000, -0.0000000000000000000 ) ) ;
#261 = CARTESIAN_POINT ( 'NONE',  ( 0.9000000000001229200, 0.0000000000000000000, 0.0000000000000000000 ) ) ;
#262 = DIRECTION ( 'NONE',  ( 0.0000000000000000000, 0.0000000000000000000, 1.000000000000000000 ) ) ;
#263 = ORIENTED_EDGE ( 'NONE', *, *, #76, .F. ) ;
#264 = DIRECTION ( 'NONE',  ( 0.0000000000000000000, -1.000000000000000000, 0.0000000000000000000 ) ) ;
#265 = EDGE_LOOP ( 'NONE', ( #168, #9, #61 ) ) ;
#266 = EDGE_CURVE ( 'NONE', #277, #163, #58, .T. ) ;
#267 = DIRECTION ( 'NONE',  ( 0.0000000000000000000, 0.0000000000000000000, -1.000000000000000000 ) ) ;
#268 = DATE_AND_TIME ( #278, #281 ) ;
#269 = CC_DESIGN_PERSON_AND_ORGANIZATION_ASSIGNMENT ( #159, #65, ( #15 ) ) ;
#270 = AXIS2_PLACEMENT_3D ( 'NONE', #55, #143, #142 ) ;
#271 = ORIENTED_EDGE ( 'NONE', *, *, #279, .T. ) ;
#272 = ORIENTED_EDGE ( 'NONE', *, *, #118, .F. ) ;
#273 = APPLICATION_CONTEXT ( 'configuration controlled 3d designs of mechanical parts and assemblies' ) ;
#274 = LINE ( 'NONE', #48, #22 ) ;
#275 = CARTESIAN_POINT ( 'NONE',  ( -1.850000000000000100, 0.0000000000000000000, 0.0000000000000000000 ) ) ;
#276 = CARTESIAN_POINT ( 'NONE',  ( -1.850000000000000100, 3.079986699855593100E-015, 25.14999999999999900 ) ) ;
#277 = VERTEX_POINT ( 'NONE', #87 ) ;
#278 = CALENDAR_DATE ( 2015, 29, 5 ) ;
#279 = EDGE_CURVE ( 'NONE', #285, #38, #47, .T. ) ;
#280 = ORIENTED_EDGE ( 'NONE', *, *, #31, .T. ) ;
#281 = LOCAL_TIME ( 10, 17, 25.00000000000000000, #287 ) ;
#282 =( NAMED_UNIT ( * ) SI_UNIT ( $, .STERADIAN. ) SOLID_ANGLE_UNIT ( ) );
#283 = CARTESIAN_POINT ( 'NONE',  ( -458.2499990398369500, 0.0000000000000000000, 0.02972443591000434300 ) ) ;
#284 = VERTEX_POINT ( 'NONE', #151 ) ;
#285 = VERTEX_POINT ( 'NONE', #33 ) ;
#286 = ADVANCED_FACE ( 'NONE', ( #294 ), #126, .T. ) ;
#287 = COORDINATED_UNIVERSAL_TIME_OFFSET ( 5, 0, .BEHIND. ) ;
#288 = EDGE_CURVE ( 'NONE', #189, #277, #274, .T. ) ;
#289 = DIRECTION ( 'NONE',  ( 0.0000000000000000000, 0.0000000000000000000, -1.000000000000000000 ) ) ;
#290 =( LENGTH_UNIT ( ) NAMED_UNIT ( * ) SI_UNIT ( .MILLI., .METRE. ) );
#291 = EDGE_LOOP ( 'NONE', ( #210, #62 ) ) ;
#292 = VECTOR ( 'NONE', #251, 1000.000000000000000 ) ;
#293 = AXIS2_PLACEMENT_3D ( 'NONE', #240, #173, #236 ) ;
#294 = FACE_OUTER_BOUND ( 'NONE', #162, .T. ) ;
#295 = DIRECTION ( 'NONE',  ( -1.000000000000000000, -0.0000000000000000000, -0.0000000000000000000 ) ) ;
#296 = CARTESIAN_POINT ( 'NONE',  ( 1.163713463258442300, 3.080041592648454100E-015, -25.15044823366948600 ) ) ;
#297 = PERSON_AND_ORGANIZATION_ROLE ( 'creator' ) ;
#298 = DIRECTION ( 'NONE',  ( 1.000000000000000000, 0.0000000000000000000, 0.0000000000000000000 ) ) ;
#299 = FACE_OUTER_BOUND ( 'NONE', #75, .T. ) ;
#300 = DIRECTION ( 'NONE',  ( 0.7071067811865328100, 8.659560562355114000E-017, 0.7071067811865622300 ) ) ;
#301 = APPROVAL_PERSON_ORGANIZATION ( #67, #109, #167 ) ;
ENDSEC;
END-ISO-10303-21;
