ISO-10303-21;
HEADER;
FILE_DESCRIPTION (( 'STEP AP203' ),
    '1' );
FILE_NAME ('Web Model 85296_85299.step',
    '2017-05-01T20:09:24',
    ( '' ),
    ( '' ),
    'SwSTEP 2.0',
    'SolidWorks 2016',
    '' );
FILE_SCHEMA (( 'CONFIG_CONTROL_DESIGN' ));
ENDSEC;

DATA;
#1 = FACE_OUTER_BOUND ( 'NONE', #124, .T. ) ;
#2 = FACE_OUTER_BOUND ( 'NONE', #22, .T. ) ;
#3 = LINE ( 'NONE', #96, #12 ) ;
#4 = LINE ( 'NONE', #140, #11 ) ;
#5 = LINE ( 'NONE', #166, #112 ) ;
#6 = LINE ( 'NONE', #183, #7 ) ;
#7 = VECTOR ( 'NONE', #97, 1000.000000000000000 ) ;
#8 = CC_DESIGN_PERSON_AND_ORGANIZATION_ASSIGNMENT ( #28, #225, ( #89 ) ) ;
#9 = VECTOR ( 'NONE', #93, 1000.000000000000000 ) ;
#10 = VECTOR ( 'NONE', #230, 1000.000000000000000 ) ;
#11 = VECTOR ( 'NONE', #180, 1000.000000000000000 ) ;
#12 = VECTOR ( 'NONE', #126, 1000.000000000000000 ) ;
#13 = EDGE_LOOP ( 'NONE', ( #157, #165, #146, #24 ) ) ;
#14 = LINE ( 'NONE', #35, #9 ) ;
#15 = ORIENTED_EDGE ( 'NONE', *, *, #163, .T. ) ;
#16 = CC_DESIGN_APPROVAL ( #55, ( #89 ) ) ;
#17 = ORIENTED_EDGE ( 'NONE', *, *, #69, .F. ) ;
#18 = ORIENTED_EDGE ( 'NONE', *, *, #136, .T. ) ;
#19 = CARTESIAN_POINT ( 'NONE',  ( -25.00000000000000700, 25.00000000000000000, -1.000000000000000000 ) ) ;
#20 = ORIENTED_EDGE ( 'NONE', *, *, #80, .T. ) ;
#21 = APPROVAL_DATE_TIME ( #104, #116 ) ;
#22 = EDGE_LOOP ( 'NONE', ( #36, #68, #23, #117 ) ) ;
#23 = ORIENTED_EDGE ( 'NONE', *, *, #119, .F. ) ;
#24 = ORIENTED_EDGE ( 'NONE', *, *, #147, .T. ) ;
#25 = VERTEX_POINT ( 'NONE', #115 ) ;
#26 = VERTEX_POINT ( 'NONE', #59 ) ;
#27 = LINE ( 'NONE', #19, #106 ) ;
#28 = PERSON_AND_ORGANIZATION ( #167, #135 ) ;
#29 = EDGE_LOOP ( 'NONE', ( #18, #47, #181, #228 ) ) ;
#30 = PLANE ( 'NONE',  #188 ) ;
#31 = ADVANCED_FACE ( 'NONE', ( #73 ), #134, .F. ) ;
#32 = CC_DESIGN_DATE_AND_TIME_ASSIGNMENT ( #184, #148, ( #105 ) ) ;
#33 = SECURITY_CLASSIFICATION_LEVEL ( 'unclassified' ) ;
#34 = LINE ( 'NONE', #99, #168 ) ;
#35 = CARTESIAN_POINT ( 'NONE',  ( -25.00000000000000000, -25.00000000000000000, 1.000000000000000000 ) ) ;
#36 = ORIENTED_EDGE ( 'NONE', *, *, #164, .F. ) ;
#37 = DATE_AND_TIME ( #87, #128 ) ;
#38 = VERTEX_POINT ( 'NONE', #189 ) ;
#39 = CARTESIAN_POINT ( 'NONE',  ( -25.00000000000000000, -25.00000000000000000, -1.000000000000000000 ) ) ;
#40 = EDGE_CURVE ( 'NONE', #26, #170, #34, .T. ) ;
#41 = ORIENTED_EDGE ( 'NONE', *, *, #40, .T. ) ;
#42 = VERTEX_POINT ( 'NONE', #197 ) ;
#43 = CARTESIAN_POINT ( 'NONE',  ( -25.00000000000000000, -25.00000000000000000, 1.000000000000000000 ) ) ;
#44 = MANIFOLD_SOLID_BREP ( 'Boss-Extrude1', #214 ) ;
#45 = EDGE_CURVE ( 'NONE', #26, #42, #52, .T. ) ;
#46 = CALENDAR_DATE ( 2017, 1, 5 ) ;
#47 = ORIENTED_EDGE ( 'NONE', *, *, #40, .F. ) ;
#48 = PERSON_AND_ORGANIZATION ( #167, #135 ) ;
#49 = DATE_AND_TIME ( #129, #223 ) ;
#50 = DIRECTION ( 'NONE',  ( 1.387778780781445700E-016, -1.000000000000000000, 0.0000000000000000000 ) ) ;
#51 = DIRECTION ( 'NONE',  ( 0.0000000000000000000, -0.0000000000000000000, 1.000000000000000000 ) ) ;
#52 = LINE ( 'NONE', #77, #216 ) ;
#53 = CARTESIAN_POINT ( 'NONE',  ( -25.00000000000000700, 25.00000000000000000, 1.000000000000000000 ) ) ;
#54 = ADVANCED_FACE ( 'NONE', ( #58 ), #102, .T. ) ;
#55 = APPROVAL ( #215, 'UNSPECIFIED' ) ;
#56 = CC_DESIGN_APPROVAL ( #116, ( #105 ) ) ;
#57 = DIRECTION ( 'NONE',  ( 0.0000000000000000000, -0.0000000000000000000, -1.000000000000000000 ) ) ;
#58 = FACE_OUTER_BOUND ( 'NONE', #13, .T. ) ;
#59 = CARTESIAN_POINT ( 'NONE',  ( 25.00000000000000000, -25.00000000000000000, 1.000000000000000000 ) ) ;
#60 = ADVANCED_BREP_SHAPE_REPRESENTATION ( 'Web Model 85296_85299', ( #44, #70 ), #194 ) ;
#61 = EDGE_LOOP ( 'NONE', ( #142, #101, #236, #20 ) ) ;
#62 = LOCAL_TIME ( 16, 9, 24.00000000000000000, #143 ) ;
#63 = PRODUCT_DEFINITION_SHAPE ( 'NONE', 'NONE',  #204 ) ;
#64 = VECTOR ( 'NONE', #50, 1000.000000000000000 ) ;
#65 = CALENDAR_DATE ( 2017, 1, 5 ) ;
#66 = APPROVAL_ROLE ( '' ) ;
#67 = PRODUCT ( 'Web Model 85296_85299', 'Web Model 85296_85299', '', ( #84 ) ) ;
#68 = ORIENTED_EDGE ( 'NONE', *, *, #136, .F. ) ;
#69 = EDGE_CURVE ( 'NONE', #42, #86, #137, .T. ) ;
#70 = AXIS2_PLACEMENT_3D ( 'NONE', #190, #192, #177 ) ;
#71 = APPLICATION_PROTOCOL_DEFINITION ( 'international standard', 'config_control_design', 1994, #237 ) ;
#72 = LINE ( 'NONE', #53, #64 ) ;
#73 = FACE_OUTER_BOUND ( 'NONE', #139, .T. ) ;
#74 = LINE ( 'NONE', #229, #211 ) ;
#75 = ORIENTED_EDGE ( 'NONE', *, *, #161, .T. ) ;
#76 = CC_DESIGN_PERSON_AND_ORGANIZATION_ASSIGNMENT ( #169, #226, ( #89 ) ) ;
#77 = CARTESIAN_POINT ( 'NONE',  ( 24.99999999999999300, 25.00000000000000000, 1.000000000000000000 ) ) ;
#78 = PRODUCT_RELATED_PRODUCT_CATEGORY ( 'detail', '', ( #67 ) ) ;
#79 = PERSON_AND_ORGANIZATION ( #167, #135 ) ;
#80 = EDGE_CURVE ( 'NONE', #86, #25, #149, .T. ) ;
#81 = CARTESIAN_POINT ( 'NONE',  ( -25.00000000000000700, 25.00000000000000000, 1.000000000000000000 ) ) ;
#82 = CARTESIAN_POINT ( 'NONE',  ( -25.00000000000000700, 25.00000000000000000, 1.000000000000000000 ) ) ;
#83 = COORDINATED_UNIVERSAL_TIME_OFFSET ( 5, 0, .BEHIND. ) ;
#84 = MECHANICAL_CONTEXT ( 'NONE', #176, 'mechanical' ) ;
#85 = EDGE_CURVE ( 'NONE', #130, #178, #14, .T. ) ;
#86 = VERTEX_POINT ( 'NONE', #82 ) ;
#87 = CALENDAR_DATE ( 2017, 1, 5 ) ;
#88 = PLANE ( 'NONE',  #199 ) ;
#89 = PRODUCT_DEFINITION_FORMATION_WITH_SPECIFIED_SOURCE ( 'ANY', '', #67, .NOT_KNOWN. ) ;
#90 = PERSON_AND_ORGANIZATION ( #167, #135 ) ;
#91 = DIRECTION ( 'NONE',  ( -1.387778780781445700E-016, 1.000000000000000000, -0.0000000000000000000 ) ) ;
#92 = AXIS2_PLACEMENT_3D ( 'NONE', #108, #150, #57 ) ;
#93 = DIRECTION ( 'NONE',  ( -0.0000000000000000000, -0.0000000000000000000, -1.000000000000000000 ) ) ;
#94 = PERSON_AND_ORGANIZATION ( #167, #135 ) ;
#95 = APPROVAL_PERSON_ORGANIZATION ( #187, #55, #221 ) ;
#96 = CARTESIAN_POINT ( 'NONE',  ( 24.99999999999999300, 25.00000000000000000, -1.000000000000000000 ) ) ;
#97 = DIRECTION ( 'NONE',  ( 1.387778780781445700E-016, -1.000000000000000000, 0.0000000000000000000 ) ) ;
#98 = APPROVAL_STATUS ( 'not_yet_approved' ) ;
#99 = CARTESIAN_POINT ( 'NONE',  ( 25.00000000000000000, -25.00000000000000000, 1.000000000000000000 ) ) ;
#100 = DIRECTION ( 'NONE',  ( -0.0000000000000000000, 0.0000000000000000000, 1.000000000000000000 ) ) ;
#101 = ORIENTED_EDGE ( 'NONE', *, *, #85, .F. ) ;
#102 = PLANE ( 'NONE',  #213 ) ;
#103 = DIRECTION ( 'NONE',  ( 1.000000000000000000, 0.0000000000000000000, 0.0000000000000000000 ) ) ;
#104 = DATE_AND_TIME ( #201, #62 ) ;
#105 = SECURITY_CLASSIFICATION ( '', '', #33 ) ;
#106 = VECTOR ( 'NONE', #198, 1000.000000000000000 ) ;
#107 = APPROVAL_DATE_TIME ( #203, #55 ) ;
#108 = CARTESIAN_POINT ( 'NONE',  ( -25.00000000000000700, 25.00000000000000000, 1.000000000000000000 ) ) ;
#109 = CARTESIAN_POINT ( 'NONE',  ( 25.00000000000000000, -25.00000000000000000, -1.000000000000000000 ) ) ;
#110 = APPROVAL_STATUS ( 'not_yet_approved' ) ;
#111 = DIRECTION ( 'NONE',  ( 0.0000000000000000000, 1.000000000000000000, 0.0000000000000000000 ) ) ;
#112 = VECTOR ( 'NONE', #103, 1000.000000000000000 ) ;
#113 = CC_DESIGN_DATE_AND_TIME_ASSIGNMENT ( #49, #212, ( #204 ) ) ;
#114 = ADVANCED_FACE ( 'NONE', ( #2 ), #88, .F. ) ;
#115 = CARTESIAN_POINT ( 'NONE',  ( -25.00000000000000700, 25.00000000000000000, -1.000000000000000000 ) ) ;
#116 = APPROVAL ( #98, 'UNSPECIFIED' ) ;
#117 = ORIENTED_EDGE ( 'NONE', *, *, #163, .F. ) ;
#118 = DIRECTION ( 'NONE',  ( -1.000000000000000000, -0.0000000000000000000, -0.0000000000000000000 ) ) ;
#119 = EDGE_CURVE ( 'NONE', #25, #178, #6, .T. ) ;
#120 = ORIENTED_EDGE ( 'NONE', *, *, #45, .F. ) ;
#121 = DIRECTION ( 'NONE',  ( -0.0000000000000000000, -0.0000000000000000000, -1.000000000000000000 ) ) ;
#122 = CARTESIAN_POINT ( 'NONE',  ( 0.0000000000000000000, 0.0000000000000000000, -1.000000000000000000 ) ) ;
#123 = LOCAL_TIME ( 16, 9, 24.00000000000000000, #219 ) ;
#124 = EDGE_LOOP ( 'NONE', ( #162, #156, #120, #41 ) ) ;
#125 = AXIS2_PLACEMENT_3D ( 'NONE', #191, #111, #51 ) ;
#126 = DIRECTION ( 'NONE',  ( -1.387778780781445700E-016, 1.000000000000000000, -0.0000000000000000000 ) ) ;
#127 = APPROVAL_ROLE ( '' ) ;
#128 = LOCAL_TIME ( 16, 9, 24.00000000000000000, #182 ) ;
#129 = CALENDAR_DATE ( 2017, 1, 5 ) ;
#130 = VERTEX_POINT ( 'NONE', #43 ) ;
#131 = DIRECTION ( 'NONE',  ( -1.387778780781445700E-016, 1.000000000000000000, 0.0000000000000000000 ) ) ;
#132 = CC_DESIGN_PERSON_AND_ORGANIZATION_ASSIGNMENT ( #179, #138, ( #204 ) ) ;
#133 = CC_DESIGN_PERSON_AND_ORGANIZATION_ASSIGNMENT ( #79, #208, ( #105 ) ) ;
#134 = PLANE ( 'NONE',  #92 ) ;
#135 = ORGANIZATION ( 'UNSPECIFIED', 'UNSPECIFIED', '' ) ;
#136 = EDGE_CURVE ( 'NONE', #178, #170, #5, .T. ) ;
#137 = LINE ( 'NONE', #81, #217 ) ;
#138 = PERSON_AND_ORGANIZATION_ROLE ( 'creator' ) ;
#139 = EDGE_LOOP ( 'NONE', ( #15, #224, #17, #75 ) ) ;
#140 = CARTESIAN_POINT ( 'NONE',  ( -25.00000000000000000, -25.00000000000000000, 1.000000000000000000 ) ) ;
#141 = DIRECTION ( 'NONE',  ( 1.387778780781445700E-016, -1.000000000000000000, 0.0000000000000000000 ) ) ;
#142 = ORIENTED_EDGE ( 'NONE', *, *, #119, .T. ) ;
#143 = COORDINATED_UNIVERSAL_TIME_OFFSET ( 5, 0, .BEHIND. ) ;
#144 = SHAPE_DEFINITION_REPRESENTATION ( #63, #60 ) ;
#145 = LOCAL_TIME ( 16, 9, 24.00000000000000000, #232 ) ;
#146 = ORIENTED_EDGE ( 'NONE', *, *, #195, .T. ) ;
#147 = EDGE_CURVE ( 'NONE', #130, #26, #4, .T. ) ;
#148 = DATE_TIME_ROLE ( 'classification_date' ) ;
#149 = LINE ( 'NONE', #172, #10 ) ;
#150 = DIRECTION ( 'NONE',  ( 0.0000000000000000000, -1.000000000000000000, 0.0000000000000000000 ) ) ;
#151 =( LENGTH_UNIT ( ) NAMED_UNIT ( * ) SI_UNIT ( .MILLI., .METRE. ) );
#152 =( NAMED_UNIT ( * ) PLANE_ANGLE_UNIT ( ) SI_UNIT ( $, .RADIAN. ) );
#153 = PERSON_AND_ORGANIZATION_ROLE ( 'design_owner' ) ;
#154 =( NAMED_UNIT ( * ) SI_UNIT ( $, .STERADIAN. ) SOLID_ANGLE_UNIT ( ) );
#155 = FACE_OUTER_BOUND ( 'NONE', #61, .T. ) ;
#156 = ORIENTED_EDGE ( 'NONE', *, *, #161, .F. ) ;
#157 = ORIENTED_EDGE ( 'NONE', *, *, #45, .T. ) ;
#158 = APPLICATION_PROTOCOL_DEFINITION ( 'international standard', 'config_control_design', 1994, #176 ) ;
#159 = AXIS2_PLACEMENT_3D ( 'NONE', #220, #207, #141 ) ;
#160 = CC_DESIGN_SECURITY_CLASSIFICATION ( #105, ( #89 ) ) ;
#161 = EDGE_CURVE ( 'NONE', #42, #38, #74, .T. ) ;
#162 = ORIENTED_EDGE ( 'NONE', *, *, #164, .T. ) ;
#163 = EDGE_CURVE ( 'NONE', #38, #25, #27, .T. ) ;
#164 = EDGE_CURVE ( 'NONE', #170, #38, #3, .T. ) ;
#165 = ORIENTED_EDGE ( 'NONE', *, *, #69, .T. ) ;
#166 = CARTESIAN_POINT ( 'NONE',  ( -25.00000000000000000, -25.00000000000000000, -1.000000000000000000 ) ) ;
#167 = PERSON ( 'UNSPECIFIED', 'UNSPECIFIED', 'UNSPECIFIED', ('UNSPECIFIED'), ('UNSPECIFIED'), ('UNSPECIFIED') ) ;
#168 = VECTOR ( 'NONE', #173, 1000.000000000000000 ) ;
#169 = PERSON_AND_ORGANIZATION ( #167, #135 ) ;
#170 = VERTEX_POINT ( 'NONE', #109 ) ;
#171 = CC_DESIGN_APPROVAL ( #185, ( #204 ) ) ;
#172 = CARTESIAN_POINT ( 'NONE',  ( -25.00000000000000700, 25.00000000000000000, 1.000000000000000000 ) ) ;
#173 = DIRECTION ( 'NONE',  ( -0.0000000000000000000, -0.0000000000000000000, -1.000000000000000000 ) ) ;
#174 = DIRECTION ( 'NONE',  ( 1.000000000000000000, 1.387778780781445700E-016, -0.0000000000000000000 ) ) ;
#175 = ADVANCED_FACE ( 'NONE', ( #155 ), #30, .F. ) ;
#176 = APPLICATION_CONTEXT ( 'configuration controlled 3d designs of mechanical parts and assemblies' ) ;
#177 = DIRECTION ( 'NONE',  ( 1.000000000000000000, 0.0000000000000000000, 0.0000000000000000000 ) ) ;
#178 = VERTEX_POINT ( 'NONE', #39 ) ;
#179 = PERSON_AND_ORGANIZATION ( #167, #135 ) ;
#180 = DIRECTION ( 'NONE',  ( 1.000000000000000000, 0.0000000000000000000, 0.0000000000000000000 ) ) ;
#181 = ORIENTED_EDGE ( 'NONE', *, *, #147, .F. ) ;
#182 = COORDINATED_UNIVERSAL_TIME_OFFSET ( 5, 0, .BEHIND. ) ;
#183 = CARTESIAN_POINT ( 'NONE',  ( -25.00000000000000700, 25.00000000000000000, -1.000000000000000000 ) ) ;
#184 = DATE_AND_TIME ( #46, #123 ) ;
#185 = APPROVAL ( #110, 'UNSPECIFIED' ) ;
#186 = DESIGN_CONTEXT ( 'detailed design', #237, 'design' ) ;
#187 = PERSON_AND_ORGANIZATION ( #167, #135 ) ;
#188 = AXIS2_PLACEMENT_3D ( 'NONE', #233, #174, #131 ) ;
#189 = CARTESIAN_POINT ( 'NONE',  ( 24.99999999999999300, 25.00000000000000000, -1.000000000000000000 ) ) ;
#190 = CARTESIAN_POINT ( 'NONE',  ( 0.0000000000000000000, 0.0000000000000000000, 0.0000000000000000000 ) ) ;
#191 = CARTESIAN_POINT ( 'NONE',  ( -25.00000000000000000, -25.00000000000000000, 1.000000000000000000 ) ) ;
#192 = DIRECTION ( 'NONE',  ( 0.0000000000000000000, 0.0000000000000000000, 1.000000000000000000 ) ) ;
#193 = PLANE ( 'NONE',  #125 ) ;
#194 =( GEOMETRIC_REPRESENTATION_CONTEXT ( 3 ) GLOBAL_UNCERTAINTY_ASSIGNED_CONTEXT ( ( #206 ) ) GLOBAL_UNIT_ASSIGNED_CONTEXT ( ( #151, #152, #154 ) ) REPRESENTATION_CONTEXT ( 'NONE', 'WORKASPACE' ) );
#195 = EDGE_CURVE ( 'NONE', #86, #130, #72, .T. ) ;
#196 = DIRECTION ( 'NONE',  ( 1.000000000000000000, 0.0000000000000000000, 0.0000000000000000000 ) ) ;
#197 = CARTESIAN_POINT ( 'NONE',  ( 24.99999999999999300, 25.00000000000000000, 1.000000000000000000 ) ) ;
#198 = DIRECTION ( 'NONE',  ( -1.000000000000000000, -0.0000000000000000000, -0.0000000000000000000 ) ) ;
#199 = AXIS2_PLACEMENT_3D ( 'NONE', #122, #100, #200 ) ;
#200 = DIRECTION ( 'NONE',  ( 1.000000000000000000, 0.0000000000000000000, 0.0000000000000000000 ) ) ;
#201 = CALENDAR_DATE ( 2017, 1, 5 ) ;
#202 = FACE_OUTER_BOUND ( 'NONE', #29, .T. ) ;
#203 = DATE_AND_TIME ( #65, #145 ) ;
#204 = PRODUCT_DEFINITION ( 'UNKNOWN', '', #89, #186 ) ;
#205 = DIRECTION ( 'NONE',  ( -0.0000000000000000000, 0.0000000000000000000, 1.000000000000000000 ) ) ;
#206 = UNCERTAINTY_MEASURE_WITH_UNIT (LENGTH_MEASURE( 1.000000000000000100E-005 ), #151, 'distance_accuracy_value', 'NONE');
#207 = DIRECTION ( 'NONE',  ( -1.000000000000000000, -1.387778780781445700E-016, 0.0000000000000000000 ) ) ;
#208 = PERSON_AND_ORGANIZATION_ROLE ( 'classification_officer' ) ;
#209 = CC_DESIGN_PERSON_AND_ORGANIZATION_ASSIGNMENT ( #90, #153, ( #67 ) ) ;
#210 = ADVANCED_FACE ( 'NONE', ( #202 ), #193, .F. ) ;
#211 = VECTOR ( 'NONE', #121, 1000.000000000000000 ) ;
#212 = DATE_TIME_ROLE ( 'creation_date' ) ;
#213 = AXIS2_PLACEMENT_3D ( 'NONE', #218, #205, #196 ) ;
#214 = CLOSED_SHELL ( 'NONE', ( #234, #31, #175, #210, #54, #114 ) ) ;
#215 = APPROVAL_STATUS ( 'not_yet_approved' ) ;
#216 = VECTOR ( 'NONE', #91, 1000.000000000000000 ) ;
#217 = VECTOR ( 'NONE', #118, 1000.000000000000000 ) ;
#218 = CARTESIAN_POINT ( 'NONE',  ( 0.0000000000000000000, 0.0000000000000000000, 1.000000000000000000 ) ) ;
#219 = COORDINATED_UNIVERSAL_TIME_OFFSET ( 5, 0, .BEHIND. ) ;
#220 = CARTESIAN_POINT ( 'NONE',  ( 24.99999999999999300, 25.00000000000000000, 1.000000000000000000 ) ) ;
#221 = APPROVAL_ROLE ( '' ) ;
#222 = APPROVAL_DATE_TIME ( #37, #185 ) ;
#223 = LOCAL_TIME ( 16, 9, 24.00000000000000000, #83 ) ;
#224 = ORIENTED_EDGE ( 'NONE', *, *, #80, .F. ) ;
#225 = PERSON_AND_ORGANIZATION_ROLE ( 'creator' ) ;
#226 = PERSON_AND_ORGANIZATION_ROLE ( 'design_supplier' ) ;
#227 = APPROVAL_PERSON_ORGANIZATION ( #48, #185, #127 ) ;
#228 = ORIENTED_EDGE ( 'NONE', *, *, #85, .T. ) ;
#229 = CARTESIAN_POINT ( 'NONE',  ( 24.99999999999999300, 25.00000000000000000, 1.000000000000000000 ) ) ;
#230 = DIRECTION ( 'NONE',  ( -0.0000000000000000000, -0.0000000000000000000, -1.000000000000000000 ) ) ;
#231 = APPROVAL_PERSON_ORGANIZATION ( #94, #116, #66 ) ;
#232 = COORDINATED_UNIVERSAL_TIME_OFFSET ( 5, 0, .BEHIND. ) ;
#233 = CARTESIAN_POINT ( 'NONE',  ( -25.00000000000000700, 25.00000000000000000, 1.000000000000000000 ) ) ;
#234 = ADVANCED_FACE ( 'NONE', ( #1 ), #235, .F. ) ;
#235 = PLANE ( 'NONE',  #159 ) ;
#236 = ORIENTED_EDGE ( 'NONE', *, *, #195, .F. ) ;
#237 = APPLICATION_CONTEXT ( 'configuration controlled 3d designs of mechanical parts and assemblies' ) ;
ENDSEC;
END-ISO-10303-21;
