ISO-10303-21;
HEADER;
FILE_DESCRIPTION (( 'STEP AP203' ),
    '1' );
FILE_NAME ('20122-E0W.STEP',
    '2015-06-08T17:21:09',
    ( 'Admin' ),
    ( '' ),
    'SwSTEP 2.0',
    'SolidWorks 2014',
    '' );
FILE_SCHEMA (( 'CONFIG_CONTROL_DESIGN' ));
ENDSEC;

DATA;
#1 = ORIENTED_EDGE ( 'NONE', *, *, #209, .T. ) ;
#2 = CONICAL_SURFACE ( 'NONE', #210, 12.55857864376269200, 0.7853981633974548300 ) ;
#3 = ADVANCED_FACE ( 'NONE', ( #23 ), #48, .T. ) ;
#4 = CIRCLE ( 'NONE', #59, 12.55857864376268300 ) ;
#5 = DIRECTION ( 'NONE',  ( -0.0000000000000000000, 3.061515884555943600E-016, -1.000000000000000000 ) ) ;
#6 = APPROVAL ( #129, 'UNSPECIFIED' ) ;
#7 = DATE_AND_TIME ( #157, #121 ) ;
#8 = ADVANCED_FACE ( 'NONE', ( #57 ), #80, .T. ) ;
#9 = ORIENTED_EDGE ( 'NONE', *, *, #283, .T. ) ;
#10 = ORIENTED_EDGE ( 'NONE', *, *, #166, .F. ) ;
#11 = APPLICATION_PROTOCOL_DEFINITION ( 'international standard', 'config_control_design', 1994, #187 ) ;
#12 = VECTOR ( 'NONE', #18, 1000.000000000000000 ) ;
#13 = PERSON_AND_ORGANIZATION ( #61, #130 ) ;
#14 = DIRECTION ( 'NONE',  ( 0.0000000000000000000, 1.000000000000000000, 3.073328992872296400E-016 ) ) ;
#15 = CARTESIAN_POINT ( 'NONE',  ( 0.0000000000000000000, 1.482502328905600500E-013, -1211.614999999999800 ) ) ;
#16 = SECURITY_CLASSIFICATION_LEVEL ( 'unclassified' ) ;
#17 = DIRECTION ( 'NONE',  ( 0.0000000000000000000, 1.000000000000000000, 3.073328992872295900E-016 ) ) ;
#18 = DIRECTION ( 'NONE',  ( 8.659560562354989600E-017, 0.7071067811865519000, 0.7071067811865431300 ) ) ;
#19 = EDGE_LOOP ( 'NONE', ( #126, #34, #274 ) ) ;
#20 = EDGE_CURVE ( 'NONE', #179, #249, #165, .T. ) ;
#21 = EDGE_CURVE ( 'NONE', #197, #127, #212, .T. ) ;
#22 = PRODUCT_DEFINITION ( 'UNKNOWN', '', #183, #293 ) ;
#23 = FACE_OUTER_BOUND ( 'NONE', #221, .T. ) ;
#24 = FACE_OUTER_BOUND ( 'NONE', #185, .T. ) ;
#25 = APPROVAL ( #177, 'UNSPECIFIED' ) ;
#26 = LINE ( 'NONE', #107, #120 ) ;
#27 = ORIENTED_EDGE ( 'NONE', *, *, #46, .F. ) ;
#28 = CARTESIAN_POINT ( 'NONE',  ( 1.555301434917138400E-015, -12.69999999999999900, 0.8285466367067052500 ) ) ;
#29 = CARTESIAN_POINT ( 'NONE',  ( 0.0000000000000000000, -2.317469534497859400E-016, 0.9699679929437948800 ) ) ;
#30 = CLOSED_SHELL ( 'NONE', ( #213, #3, #241, #43, #75, #104, #100, #8, #76 ) ) ;
#31 = AXIS2_PLACEMENT_3D ( 'NONE', #173, #207, #222 ) ;
#32 = COORDINATED_UNIVERSAL_TIME_OFFSET ( 5, 0, .BEHIND. ) ;
#33 = CARTESIAN_POINT ( 'NONE',  ( 0.0000000000000000000, 1.482502328905600500E-013, -1211.614999999999800 ) ) ;
#34 = ORIENTED_EDGE ( 'NONE', *, *, #118, .T. ) ;
#35 = FACE_OUTER_BOUND ( 'NONE', #204, .T. ) ;
#36 =( NAMED_UNIT ( * ) SI_UNIT ( $, .STERADIAN. ) SOLID_ANGLE_UNIT ( ) );
#37 = AXIS2_PLACEMENT_3D ( 'NONE', #143, #163, #154 ) ;
#38 = AXIS2_PLACEMENT_3D ( 'NONE', #255, #256, #264 ) ;
#39 = CALENDAR_DATE ( 2015, 8, 6 ) ;
#40 = DIRECTION ( 'NONE',  ( 1.000000000000000000, 0.0000000000000000000, -0.0000000000000000000 ) ) ;
#41 = DIRECTION ( 'NONE',  ( -0.0000000000000000000, 3.061515884555943600E-016, -1.000000000000000000 ) ) ;
#42 = ORIENTED_EDGE ( 'NONE', *, *, #196, .F. ) ;
#43 = ADVANCED_FACE ( 'NONE', ( #86 ), #109, .T. ) ;
#44 = ORIENTED_EDGE ( 'NONE', *, *, #191, .F. ) ;
#45 = CONICAL_SURFACE ( 'NONE', #226, 12.69999999999999900, 0.7853981633982646300 ) ;
#46 = EDGE_CURVE ( 'NONE', #211, #65, #257, .T. ) ;
#47 = CIRCLE ( 'NONE', #70, 12.69999999999999900 ) ;
#48 = CYLINDRICAL_SURFACE ( 'NONE', #37, 12.69999999999999900 ) ;
#49 = LOCAL_TIME ( 13, 21, 9.000000000000000000, #200 ) ;
#50 = CARTESIAN_POINT ( 'NONE',  ( 0.0000000000000000000, 12.69999999999999900, 0.8285466367067130200 ) ) ;
#51 = CC_DESIGN_APPROVAL ( #25, ( #225 ) ) ;
#52 = DIRECTION ( 'NONE',  ( 0.0000000000000000000, 1.000000000000000000, 3.662138373397621700E-016 ) ) ;
#53 = EDGE_CURVE ( 'NONE', #297, #65, #262, .T. ) ;
#54 = CARTESIAN_POINT ( 'NONE',  ( 1.537982313792428900E-015, 12.55857864376269200, -1.034999999999997500 ) ) ;
#55 = ORIENTED_EDGE ( 'NONE', *, *, #145, .F. ) ;
#56 = DIRECTION ( 'NONE',  ( -0.0000000000000000000, 3.061515884555943600E-016, -1.000000000000000000 ) ) ;
#57 = FACE_OUTER_BOUND ( 'NONE', #117, .T. ) ;
#58 = CARTESIAN_POINT ( 'NONE',  ( 0.0000000000000000000, 3.820771823925819500E-016, -1.035000000000000600 ) ) ;
#59 = AXIS2_PLACEMENT_3D ( 'NONE', #240, #218, #231 ) ;
#60 = CC_DESIGN_SECURITY_CLASSIFICATION ( #225, ( #183 ) ) ;
#61 = PERSON ( 'UNSPECIFIED', 'UNSPECIFIED', 'UNSPECIFIED', ('UNSPECIFIED'), ('UNSPECIFIED'), ('UNSPECIFIED') ) ;
#62 = DIRECTION ( 'NONE',  ( -0.0000000000000000000, 3.061515884555943600E-016, -1.000000000000000000 ) ) ;
#63 = PERSON_AND_ORGANIZATION_ROLE ( 'design_supplier' ) ;
#64 =( GEOMETRIC_REPRESENTATION_CONTEXT ( 3 ) GLOBAL_UNCERTAINTY_ASSIGNED_CONTEXT ( ( #232 ) ) GLOBAL_UNIT_ASSIGNED_CONTEXT ( ( #292, #139, #36 ) ) REPRESENTATION_CONTEXT ( 'NONE', 'WORKASPACE' ) );
#65 = VERTEX_POINT ( 'NONE', #201 ) ;
#66 = VERTEX_POINT ( 'NONE', #224 ) ;
#67 = LINE ( 'NONE', #82, #250 ) ;
#68 = AXIS2_PLACEMENT_3D ( 'NONE', #153, #56, #14 ) ;
#69 = DATE_AND_TIME ( #206, #49 ) ;
#70 = AXIS2_PLACEMENT_3D ( 'NONE', #244, #227, #253 ) ;
#71 = LINE ( 'NONE', #161, #242 ) ;
#72 = ORIENTED_EDGE ( 'NONE', *, *, #289, .F. ) ;
#73 = LINE ( 'NONE', #54, #12 ) ;
#74 = DIRECTION ( 'NONE',  ( 8.659560562362003000E-017, -0.7071067811871245600, -0.7071067811859705900 ) ) ;
#75 = ADVANCED_FACE ( 'NONE', ( #35 ), #269, .T. ) ;
#76 = ADVANCED_FACE ( 'NONE', ( #92 ), #2, .T. ) ;
#77 = APPLICATION_CONTEXT ( 'configuration controlled 3d designs of mechanical parts and assemblies' ) ;
#78 = APPROVAL_DATE_TIME ( #7, #79 ) ;
#79 = APPROVAL ( #270, 'UNSPECIFIED' ) ;
#80 = CYLINDRICAL_SURFACE ( 'NONE', #68, 12.69999999999999900 ) ;
#81 = LOCAL_TIME ( 13, 21, 9.000000000000000000, #32 ) ;
#82 = CARTESIAN_POINT ( 'NONE',  ( 0.0000000000000000000, 12.69999999999999900, 0.8285466367067130200 ) ) ;
#83 = AXIS2_PLACEMENT_3D ( 'NONE', #15, #40, #287 ) ;
#84 = ORIENTED_EDGE ( 'NONE', *, *, #118, .F. ) ;
#85 = EDGE_LOOP ( 'NONE', ( #10, #1, #111, #233 ) ) ;
#86 = FACE_OUTER_BOUND ( 'NONE', #141, .T. ) ;
#87 = CARTESIAN_POINT ( 'NONE',  ( 0.0000000000000000000, 3.387808095389859000E-016, -0.8935786437626935800 ) ) ;
#88 = FACE_OUTER_BOUND ( 'NONE', #19, .T. ) ;
#89 = DIRECTION ( 'NONE',  ( 0.0000000000000000000, 1.000000000000000000, 3.061515884555943600E-016 ) ) ;
#90 = ORIENTED_EDGE ( 'NONE', *, *, #21, .F. ) ;
#91 = DIRECTION ( 'NONE',  ( 0.0000000000000000000, 1.000000000000000000, 3.107937555406664100E-016 ) ) ;
#92 = FACE_OUTER_BOUND ( 'NONE', #266, .T. ) ;
#93 = AXIS2_PLACEMENT_3D ( 'NONE', #271, #112, #105 ) ;
#94 = DIRECTION ( 'NONE',  ( 0.0000000000000000000, -3.061515884555943600E-016, 1.000000000000000000 ) ) ;
#95 = PRODUCT ( '20122-E0W', '20122-E0W', '', ( #96 ) ) ;
#96 = MECHANICAL_CONTEXT ( 'NONE', #77, 'mechanical' ) ;
#97 = VERTEX_POINT ( 'NONE', #138 ) ;
#98 = ORIENTED_EDGE ( 'NONE', *, *, #166, .T. ) ;
#99 = CIRCLE ( 'NONE', #220, 1212.650000000000100 ) ;
#100 = ADVANCED_FACE ( 'NONE', ( #299 ), #45, .T. ) ;
#101 = CC_DESIGN_PERSON_AND_ORGANIZATION_ASSIGNMENT ( #125, #156, ( #183 ) ) ;
#102 = AXIS2_PLACEMENT_3D ( 'NONE', #29, #199, #301 ) ;
#103 = PERSON_AND_ORGANIZATION ( #61, #130 ) ;
#104 = ADVANCED_FACE ( 'NONE', ( #88 ), #178, .T. ) ;
#105 = DIRECTION ( 'NONE',  ( 1.000000000000000000, 0.0000000000000000000, 0.0000000000000000000 ) ) ;
#106 = ORIENTED_EDGE ( 'NONE', *, *, #191, .T. ) ;
#107 = CARTESIAN_POINT ( 'NONE',  ( 1.555301434917138400E-015, -12.69999999999999900, 0.8285466367067052500 ) ) ;
#108 = AXIS2_PLACEMENT_3D ( 'NONE', #116, #277, #113 ) ;
#109 = SPHERICAL_SURFACE ( 'NONE', #83, 1212.650000000000100 ) ;
#110 = PERSON_AND_ORGANIZATION ( #61, #130 ) ;
#111 = ORIENTED_EDGE ( 'NONE', *, *, #46, .T. ) ;
#112 = DIRECTION ( 'NONE',  ( 0.0000000000000000000, 0.0000000000000000000, 1.000000000000000000 ) ) ;
#113 = DIRECTION ( 'NONE',  ( 0.0000000000000000000, 1.000000000000000000, 3.073328992872296400E-016 ) ) ;
#114 = PERSON_AND_ORGANIZATION ( #61, #130 ) ;
#115 = AXIS2_PLACEMENT_3D ( 'NONE', #87, #149, #17 ) ;
#116 = CARTESIAN_POINT ( 'NONE',  ( 0.0000000000000000000, -1.884505805962576600E-016, 0.8285466367067091400 ) ) ;
#117 = EDGE_LOOP ( 'NONE', ( #198, #208, #106, #180 ) ) ;
#118 = EDGE_CURVE ( 'NONE', #66, #179, #99, .T. ) ;
#119 = EDGE_CURVE ( 'NONE', #197, #65, #71, .T. ) ;
#120 = VECTOR ( 'NONE', #74, 999.9999999999998900 ) ;
#121 = LOCAL_TIME ( 13, 21, 9.000000000000000000, #148 ) ;
#122 = DIRECTION ( 'NONE',  ( -0.0000000000000000000, 3.061515884555943600E-016, -1.000000000000000000 ) ) ;
#123 = PRODUCT_RELATED_PRODUCT_CATEGORY ( 'detail', '', ( #95 ) ) ;
#124 = DIRECTION ( 'NONE',  ( -0.0000000000000000000, 3.061515884555943600E-016, -1.000000000000000000 ) ) ;
#125 = PERSON_AND_ORGANIZATION ( #61, #130 ) ;
#126 = ORIENTED_EDGE ( 'NONE', *, *, #151, .F. ) ;
#127 = VERTEX_POINT ( 'NONE', #50 ) ;
#128 = DIRECTION ( 'NONE',  ( 0.0000000000000000000, -1.000000000000000000, -3.107937555406664100E-016 ) ) ;
#129 = APPROVAL_STATUS ( 'not_yet_approved' ) ;
#130 = ORGANIZATION ( 'UNSPECIFIED', 'UNSPECIFIED', '' ) ;
#131 = DIRECTION ( 'NONE',  ( -1.000000000000000000, 0.0000000000000000000, 0.0000000000000000000 ) ) ;
#132 = ORIENTED_EDGE ( 'NONE', *, *, #20, .T. ) ;
#133 = ORIENTED_EDGE ( 'NONE', *, *, #258, .T. ) ;
#134 = CARTESIAN_POINT ( 'NONE',  ( 0.0000000000000000000, 3.820771823925821400E-016, -1.035000000000001500 ) ) ;
#135 = APPROVAL_PERSON_ORGANIZATION ( #110, #79, #159 ) ;
#136 = CARTESIAN_POINT ( 'NONE',  ( 0.0000000000000000000, 3.820771823925821400E-016, -1.035000000000001500 ) ) ;
#137 = DATE_AND_TIME ( #175, #215 ) ;
#138 = CARTESIAN_POINT ( 'NONE',  ( 1.546641874354783800E-015, 12.55857864376269200, -1.034999999999997500 ) ) ;
#139 =( NAMED_UNIT ( * ) PLANE_ANGLE_UNIT ( ) SI_UNIT ( $, .RADIAN. ) );
#140 = ADVANCED_BREP_SHAPE_REPRESENTATION ( '20122-E0W', ( #273, #93 ), #64 ) ;
#141 = EDGE_LOOP ( 'NONE', ( #84, #174, #272 ) ) ;
#142 = DIRECTION ( 'NONE',  ( 0.0000000000000000000, -3.061515884555943600E-016, 1.000000000000000000 ) ) ;
#143 = CARTESIAN_POINT ( 'NONE',  ( 0.0000000000000000000, 3.820771823925817500E-016, -1.034999999999999900 ) ) ;
#144 = CIRCLE ( 'NONE', #171, 12.70000000000000100 ) ;
#145 = EDGE_CURVE ( 'NONE', #179, #127, #67, .T. ) ;
#146 = CC_DESIGN_PERSON_AND_ORGANIZATION_ASSIGNMENT ( #103, #63, ( #183 ) ) ;
#147 = DIRECTION ( 'NONE',  ( 1.000000000000000000, 0.0000000000000000000, -0.0000000000000000000 ) ) ;
#148 = COORDINATED_UNIVERSAL_TIME_OFFSET ( 5, 0, .BEHIND. ) ;
#149 = DIRECTION ( 'NONE',  ( -0.0000000000000000000, 3.061515884555943600E-016, -1.000000000000000000 ) ) ;
#150 = APPROVAL_DATE_TIME ( #167, #25 ) ;
#151 = EDGE_CURVE ( 'NONE', #66, #249, #234, .T. ) ;
#152 = APPLICATION_PROTOCOL_DEFINITION ( 'international standard', 'config_control_design', 1994, #77 ) ;
#153 = CARTESIAN_POINT ( 'NONE',  ( 0.0000000000000000000, 3.820771823925817500E-016, -1.034999999999999900 ) ) ;
#154 = DIRECTION ( 'NONE',  ( 0.0000000000000000000, 1.000000000000000000, 3.073328992872296400E-016 ) ) ;
#155 = DIRECTION ( 'NONE',  ( 1.000000000000000000, 1.224646799147353200E-016, 3.749275628560214200E-032 ) ) ;
#156 = PERSON_AND_ORGANIZATION_ROLE ( 'creator' ) ;
#157 = CALENDAR_DATE ( 2015, 8, 6 ) ;
#158 = LINE ( 'NONE', #260, #280 ) ;
#159 = APPROVAL_ROLE ( '' ) ;
#160 = CC_DESIGN_APPROVAL ( #79, ( #22 ) ) ;
#161 = CARTESIAN_POINT ( 'NONE',  ( 1.555301434917138400E-015, -12.69999999999999900, -1.035000000000003700 ) ) ;
#162 = APPROVAL_ROLE ( '' ) ;
#163 = DIRECTION ( 'NONE',  ( -0.0000000000000000000, 3.061515884555943600E-016, -1.000000000000000000 ) ) ;
#164 = CARTESIAN_POINT ( 'NONE',  ( 0.0000000000000000000, 12.70000000000000100, -0.8935786437626896900 ) ) ;
#165 = CIRCLE ( 'NONE', #102, 12.55857864376268300 ) ;
#166 = EDGE_CURVE ( 'NONE', #97, #297, #190, .T. ) ;
#167 = DATE_AND_TIME ( #39, #81 ) ;
#168 = CC_DESIGN_PERSON_AND_ORGANIZATION_ASSIGNMENT ( #13, #295, ( #22 ) ) ;
#169 = CARTESIAN_POINT ( 'NONE',  ( 0.0000000000000000000, -1.884505805962576600E-016, 0.8285466367067091400 ) ) ;
#170 = COORDINATED_UNIVERSAL_TIME_OFFSET ( 5, 0, .BEHIND. ) ;
#171 = AXIS2_PLACEMENT_3D ( 'NONE', #251, #186, #203 ) ;
#172 = ORIENTED_EDGE ( 'NONE', *, *, #53, .T. ) ;
#173 = CARTESIAN_POINT ( 'NONE',  ( 0.0000000000000000000, -1.884505805962576600E-016, 0.8285466367067091400 ) ) ;
#174 = ORIENTED_EDGE ( 'NONE', *, *, #151, .T. ) ;
#175 = CALENDAR_DATE ( 2015, 8, 6 ) ;
#176 = CARTESIAN_POINT ( 'NONE',  ( 0.0000000000000000000, -12.55857864376269200, -1.035000000000005200 ) ) ;
#177 = APPROVAL_STATUS ( 'not_yet_approved' ) ;
#178 = SPHERICAL_SURFACE ( 'NONE', #195, 1212.650000000000100 ) ;
#179 = VERTEX_POINT ( 'NONE', #214 ) ;
#180 = ORIENTED_EDGE ( 'NONE', *, *, #235, .F. ) ;
#181 = DIRECTION ( 'NONE',  ( 0.0000000000000000000, 0.7071067811871250000, -0.7071067811859700300 ) ) ;
#182 = DATE_TIME_ROLE ( 'creation_date' ) ;
#183 = PRODUCT_DEFINITION_FORMATION_WITH_SPECIFIED_SOURCE ( 'ANY', '', #95, .NOT_KNOWN. ) ;
#184 = PERSON_AND_ORGANIZATION_ROLE ( 'classification_officer' ) ;
#185 = EDGE_LOOP ( 'NONE', ( #132, #252, #281, #55 ) ) ;
#186 = DIRECTION ( 'NONE',  ( -0.0000000000000000000, 3.061515884555943600E-016, -1.000000000000000000 ) ) ;
#187 = APPLICATION_CONTEXT ( 'configuration controlled 3d designs of mechanical parts and assemblies' ) ;
#188 = EDGE_LOOP ( 'NONE', ( #42, #133, #279, #90 ) ) ;
#189 = SHAPE_DEFINITION_REPRESENTATION ( #223, #140 ) ;
#190 = CIRCLE ( 'NONE', #263, 12.55857864376269200 ) ;
#191 = EDGE_CURVE ( 'NONE', #127, #211, #158, .T. ) ;
#192 = CIRCLE ( 'NONE', #38, 12.55857864376269200 ) ;
#193 = CC_DESIGN_PERSON_AND_ORGANIZATION_ASSIGNMENT ( #237, #184, ( #225 ) ) ;
#194 = APPROVAL_PERSON_ORGANIZATION ( #278, #6, #285 ) ;
#195 = AXIS2_PLACEMENT_3D ( 'NONE', #248, #147, #52 ) ;
#196 = EDGE_CURVE ( 'NONE', #249, #197, #26, .T. ) ;
#197 = VERTEX_POINT ( 'NONE', #28 ) ;
#198 = ORIENTED_EDGE ( 'NONE', *, *, #119, .F. ) ;
#199 = DIRECTION ( 'NONE',  ( -0.0000000000000000000, 3.061515884555943600E-016, -1.000000000000000000 ) ) ;
#200 = COORDINATED_UNIVERSAL_TIME_OFFSET ( 5, 0, .BEHIND. ) ;
#201 = CARTESIAN_POINT ( 'NONE',  ( 1.555301434917138800E-015, -12.70000000000000300, -0.8935786437626974700 ) ) ;
#202 = FACE_OUTER_BOUND ( 'NONE', #85, .T. ) ;
#203 = DIRECTION ( 'NONE',  ( 0.0000000000000000000, 1.000000000000000000, 3.073328992872295900E-016 ) ) ;
#204 = EDGE_LOOP ( 'NONE', ( #265, #98 ) ) ;
#205 = CARTESIAN_POINT ( 'NONE',  ( 1.537982313792458600E-015, -12.55857864376315700, 0.9699679929439059000 ) ) ;
#206 = CALENDAR_DATE ( 2015, 8, 6 ) ;
#207 = DIRECTION ( 'NONE',  ( -0.0000000000000000000, 3.061515884555943600E-016, -1.000000000000000000 ) ) ;
#208 = ORIENTED_EDGE ( 'NONE', *, *, #21, .T. ) ;
#209 = EDGE_CURVE ( 'NONE', #97, #211, #73, .T. ) ;
#210 = AXIS2_PLACEMENT_3D ( 'NONE', #239, #94, #217 ) ;
#211 = VERTEX_POINT ( 'NONE', #164 ) ;
#212 = CIRCLE ( 'NONE', #108, 12.69999999999999900 ) ;
#213 = ADVANCED_FACE ( 'NONE', ( #202 ), #282, .T. ) ;
#214 = CARTESIAN_POINT ( 'NONE',  ( 0.0000000000000000000, 12.55857864376293300, 0.9699679929439097800 ) ) ;
#215 = LOCAL_TIME ( 13, 21, 9.000000000000000000, #170 ) ;
#216 = CC_DESIGN_APPROVAL ( #6, ( #183 ) ) ;
#217 = DIRECTION ( 'NONE',  ( 0.0000000000000000000, -1.000000000000000000, -3.107937555406664100E-016 ) ) ;
#218 = DIRECTION ( 'NONE',  ( -0.0000000000000000000, 3.061515884555943600E-016, -1.000000000000000000 ) ) ;
#219 = CONICAL_SURFACE ( 'NONE', #31, 12.69999999999999900, 0.7853981633982646300 ) ;
#220 = AXIS2_PLACEMENT_3D ( 'NONE', #33, #131, #294 ) ;
#221 = EDGE_LOOP ( 'NONE', ( #9, #290, #27, #44 ) ) ;
#222 = DIRECTION ( 'NONE',  ( 0.0000000000000000000, 1.000000000000000000, 3.073328992872296400E-016 ) ) ;
#223 = PRODUCT_DEFINITION_SHAPE ( 'NONE', 'NONE',  #22 ) ;
#224 = CARTESIAN_POINT ( 'NONE',  ( 0.0000000000000000000, -1.487510938008145300E-013, 1.035000000000119200 ) ) ;
#225 = SECURITY_CLASSIFICATION ( '', '', #16 ) ;
#226 = AXIS2_PLACEMENT_3D ( 'NONE', #169, #62, #296 ) ;
#227 = DIRECTION ( 'NONE',  ( -0.0000000000000000000, 3.061515884555943600E-016, -1.000000000000000000 ) ) ;
#228 = COORDINATED_UNIVERSAL_TIME_OFFSET ( 5, 0, .BEHIND. ) ;
#229 = AXIS2_PLACEMENT_3D ( 'NONE', #134, #142, #128 ) ;
#230 = VECTOR ( 'NONE', #267, 1000.000000000000000 ) ;
#231 = DIRECTION ( 'NONE',  ( 0.0000000000000000000, 1.000000000000000000, 3.021605956645370200E-016 ) ) ;
#232 = UNCERTAINTY_MEASURE_WITH_UNIT (LENGTH_MEASURE( 1.000000000000000100E-005 ), #292, 'distance_accuracy_value', 'NONE');
#233 = ORIENTED_EDGE ( 'NONE', *, *, #53, .F. ) ;
#234 = CIRCLE ( 'NONE', #254, 1212.650000000000100 ) ;
#235 = EDGE_CURVE ( 'NONE', #65, #211, #144, .T. ) ;
#236 = LOCAL_TIME ( 13, 21, 9.000000000000000000, #228 ) ;
#237 = PERSON_AND_ORGANIZATION ( #61, #130 ) ;
#238 = CALENDAR_DATE ( 2015, 8, 6 ) ;
#239 = CARTESIAN_POINT ( 'NONE',  ( 0.0000000000000000000, 3.820771823925821400E-016, -1.035000000000001500 ) ) ;
#240 = CARTESIAN_POINT ( 'NONE',  ( 0.0000000000000000000, -2.317469534497859400E-016, 0.9699679929437948800 ) ) ;
#241 = ADVANCED_FACE ( 'NONE', ( #24 ), #219, .T. ) ;
#242 = VECTOR ( 'NONE', #41, 1000.000000000000000 ) ;
#243 = ORIENTED_EDGE ( 'NONE', *, *, #209, .F. ) ;
#244 = CARTESIAN_POINT ( 'NONE',  ( 0.0000000000000000000, -1.884505805962576600E-016, 0.8285466367067091400 ) ) ;
#245 = CARTESIAN_POINT ( 'NONE',  ( 0.0000000000000000000, 1.482502328905600500E-013, -1211.614999999999800 ) ) ;
#246 = DATE_TIME_ROLE ( 'classification_date' ) ;
#247 = APPROVAL_PERSON_ORGANIZATION ( #261, #25, #162 ) ;
#248 = CARTESIAN_POINT ( 'NONE',  ( 0.0000000000000000000, 1.482502328905600500E-013, -1211.614999999999800 ) ) ;
#249 = VERTEX_POINT ( 'NONE', #205 ) ;
#250 = VECTOR ( 'NONE', #181, 1000.000000000000000 ) ;
#251 = CARTESIAN_POINT ( 'NONE',  ( 0.0000000000000000000, 3.387808095389859000E-016, -0.8935786437626935800 ) ) ;
#252 = ORIENTED_EDGE ( 'NONE', *, *, #196, .T. ) ;
#253 = DIRECTION ( 'NONE',  ( 0.0000000000000000000, 1.000000000000000000, 3.073328992872296400E-016 ) ) ;
#254 = AXIS2_PLACEMENT_3D ( 'NONE', #245, #155, #276 ) ;
#255 = CARTESIAN_POINT ( 'NONE',  ( 0.0000000000000000000, 3.820771823925821400E-016, -1.035000000000001500 ) ) ;
#256 = DIRECTION ( 'NONE',  ( -0.0000000000000000000, 3.061515884555943600E-016, -1.000000000000000000 ) ) ;
#257 = CIRCLE ( 'NONE', #115, 12.70000000000000100 ) ;
#258 = EDGE_CURVE ( 'NONE', #249, #179, #4, .T. ) ;
#259 = CC_DESIGN_DATE_AND_TIME_ASSIGNMENT ( #137, #182, ( #22 ) ) ;
#260 = CARTESIAN_POINT ( 'NONE',  ( 0.0000000000000000000, 12.69999999999999900, -1.034999999999995900 ) ) ;
#261 = PERSON_AND_ORGANIZATION ( #61, #130 ) ;
#262 = LINE ( 'NONE', #176, #230 ) ;
#263 = AXIS2_PLACEMENT_3D ( 'NONE', #136, #124, #91 ) ;
#264 = DIRECTION ( 'NONE',  ( 0.0000000000000000000, 1.000000000000000000, 3.107937555406664100E-016 ) ) ;
#265 = ORIENTED_EDGE ( 'NONE', *, *, #289, .T. ) ;
#266 = EDGE_LOOP ( 'NONE', ( #243, #72, #172, #298 ) ) ;
#267 = DIRECTION ( 'NONE',  ( 0.0000000000000000000, -0.7071067811865523500, 0.7071067811865426900 ) ) ;
#268 = DATE_AND_TIME ( #238, #236 ) ;
#269 = PLANE ( 'NONE',  #291 ) ;
#270 = APPROVAL_STATUS ( 'not_yet_approved' ) ;
#271 = CARTESIAN_POINT ( 'NONE',  ( 0.0000000000000000000, 0.0000000000000000000, 0.0000000000000000000 ) ) ;
#272 = ORIENTED_EDGE ( 'NONE', *, *, #20, .F. ) ;
#273 = MANIFOLD_SOLID_BREP ( '20122-001-1-solid1', #30 ) ;
#274 = ORIENTED_EDGE ( 'NONE', *, *, #258, .F. ) ;
#275 = CARTESIAN_POINT ( 'NONE',  ( 0.0000000000000000000, -12.55857864376269200, -1.035000000000005200 ) ) ;
#276 = DIRECTION ( 'NONE',  ( -1.224646799147353000E-016, 1.000000000000000000, 0.0000000000000000000 ) ) ;
#277 = DIRECTION ( 'NONE',  ( -0.0000000000000000000, 3.061515884555943600E-016, -1.000000000000000000 ) ) ;
#278 = PERSON_AND_ORGANIZATION ( #61, #130 ) ;
#279 = ORIENTED_EDGE ( 'NONE', *, *, #145, .T. ) ;
#280 = VECTOR ( 'NONE', #122, 1000.000000000000000 ) ;
#281 = ORIENTED_EDGE ( 'NONE', *, *, #283, .F. ) ;
#282 = CONICAL_SURFACE ( 'NONE', #229, 12.55857864376269200, 0.7853981633974548300 ) ;
#283 = EDGE_CURVE ( 'NONE', #127, #197, #47, .T. ) ;
#284 = CC_DESIGN_PERSON_AND_ORGANIZATION_ASSIGNMENT ( #114, #300, ( #95 ) ) ;
#285 = APPROVAL_ROLE ( '' ) ;
#286 = CC_DESIGN_DATE_AND_TIME_ASSIGNMENT ( #268, #246, ( #225 ) ) ;
#287 = DIRECTION ( 'NONE',  ( 0.0000000000000000000, 1.000000000000000000, 3.662138373397621700E-016 ) ) ;
#288 = APPROVAL_DATE_TIME ( #69, #6 ) ;
#289 = EDGE_CURVE ( 'NONE', #297, #97, #192, .T. ) ;
#290 = ORIENTED_EDGE ( 'NONE', *, *, #119, .T. ) ;
#291 = AXIS2_PLACEMENT_3D ( 'NONE', #58, #5, #89 ) ;
#292 =( LENGTH_UNIT ( ) NAMED_UNIT ( * ) SI_UNIT ( .MILLI., .METRE. ) );
#293 = DESIGN_CONTEXT ( 'detailed design', #187, 'design' ) ;
#294 = DIRECTION ( 'NONE',  ( 0.0000000000000000000, 0.0000000000000000000, 1.000000000000000000 ) ) ;
#295 = PERSON_AND_ORGANIZATION_ROLE ( 'creator' ) ;
#296 = DIRECTION ( 'NONE',  ( 0.0000000000000000000, 1.000000000000000000, 3.073328992872296400E-016 ) ) ;
#297 = VERTEX_POINT ( 'NONE', #275 ) ;
#298 = ORIENTED_EDGE ( 'NONE', *, *, #235, .T. ) ;
#299 = FACE_OUTER_BOUND ( 'NONE', #188, .T. ) ;
#300 = PERSON_AND_ORGANIZATION_ROLE ( 'design_owner' ) ;
#301 = DIRECTION ( 'NONE',  ( 0.0000000000000000000, 1.000000000000000000, 3.021605956645370200E-016 ) ) ;
ENDSEC;
END-ISO-10303-21;
