ISO-10303-21;
HEADER;
FILE_DESCRIPTION (( 'STEP AP203' ),
    '1' );
FILE_NAME ('Web Model 46458_47608.step',
    '2018-03-15T18:32:29',
    ( '' ),
    ( '' ),
    'SwSTEP 2.0',
    'SolidWorks 2016',
    '' );
FILE_SCHEMA (( 'CONFIG_CONTROL_DESIGN' ));
ENDSEC;

DATA;
#1 = CARTESIAN_POINT ( 'NONE',  ( 0.7500000000000000000, 0.0000000000000000000, 0.0000000000000000000 ) ) ;
#2 = VERTEX_POINT ( 'NONE', #52 ) ;
#3 = DESIGN_CONTEXT ( 'detailed design', #78, 'design' ) ;
#4 = ORIENTED_EDGE ( 'NONE', *, *, #124, .F. ) ;
#5 = ADVANCED_FACE ( 'NONE', ( #172 ), #148, .F. ) ;
#6 = APPROVAL_DATE_TIME ( #67, #49 ) ;
#7 = APPROVAL_PERSON_ORGANIZATION ( #61, #49, #165 ) ;
#8 = AXIS2_PLACEMENT_3D ( 'NONE', #1, #57, #15 ) ;
#9 = DIRECTION ( 'NONE',  ( 1.000000000000000000, 0.0000000000000000000, 0.0000000000000000000 ) ) ;
#10 = PERSON ( 'UNSPECIFIED', 'UNSPECIFIED', 'UNSPECIFIED', ('UNSPECIFIED'), ('UNSPECIFIED'), ('UNSPECIFIED') ) ;
#11 = PRODUCT_DEFINITION ( 'UNKNOWN', '', #44, #3 ) ;
#12 = CARTESIAN_POINT ( 'NONE',  ( -0.7500000000000000000, 1.555301434917138400E-015, -12.69999999999999900 ) ) ;
#13 = LOCAL_TIME ( 14, 32, 29.00000000000000000, #128 ) ;
#14 = EDGE_LOOP ( 'NONE', ( #102, #156 ) ) ;
#15 = DIRECTION ( 'NONE',  ( 0.0000000000000000000, 0.0000000000000000000, 1.000000000000000000 ) ) ;
#16 = CARTESIAN_POINT ( 'NONE',  ( 0.7500000000000000000, 0.0000000000000000000, 12.69999999999999900 ) ) ;
#17 = EDGE_CURVE ( 'NONE', #68, #94, #56, .T. ) ;
#18 =( NAMED_UNIT ( * ) SI_UNIT ( $, .STERADIAN. ) SOLID_ANGLE_UNIT ( ) );
#19 = MANIFOLD_SOLID_BREP ( 'Boss-Extrude1', #69 ) ;
#20 = APPLICATION_PROTOCOL_DEFINITION ( 'international standard', 'config_control_design', 1994, #58 ) ;
#21 = PERSON_AND_ORGANIZATION ( #10, #151 ) ;
#22 = AXIS2_PLACEMENT_3D ( 'NONE', #81, #39, #54 ) ;
#23 = DIRECTION ( 'NONE',  ( 1.000000000000000000, 0.0000000000000000000, 0.0000000000000000000 ) ) ;
#24 = LOCAL_TIME ( 14, 32, 29.00000000000000000, #105 ) ;
#25 = ORIENTED_EDGE ( 'NONE', *, *, #38, .T. ) ;
#26 = DIRECTION ( 'NONE',  ( 0.0000000000000000000, 0.0000000000000000000, -1.000000000000000000 ) ) ;
#27 = DIRECTION ( 'NONE',  ( 1.000000000000000000, 0.0000000000000000000, 0.0000000000000000000 ) ) ;
#28 = ADVANCED_BREP_SHAPE_REPRESENTATION ( 'Web Model 46458_47608', ( #19, #33 ), #132 ) ;
#29 = APPROVAL_STATUS ( 'not_yet_approved' ) ;
#30 = CC_DESIGN_DATE_AND_TIME_ASSIGNMENT ( #131, #60, ( #11 ) ) ;
#31 = PERSON_AND_ORGANIZATION ( #10, #151 ) ;
#32 = EDGE_LOOP ( 'NONE', ( #4, #164 ) ) ;
#33 = AXIS2_PLACEMENT_3D ( 'NONE', #130, #168, #117 ) ;
#34 = DIRECTION ( 'NONE',  ( -1.000000000000000000, -0.0000000000000000000, -0.0000000000000000000 ) ) ;
#35 = PERSON_AND_ORGANIZATION ( #10, #151 ) ;
#36 = ORIENTED_EDGE ( 'NONE', *, *, #136, .F. ) ;
#37 = PERSON_AND_ORGANIZATION_ROLE ( 'design_supplier' ) ;
#38 = EDGE_CURVE ( 'NONE', #108, #2, #169, .T. ) ;
#39 = DIRECTION ( 'NONE',  ( 1.000000000000000000, 0.0000000000000000000, 0.0000000000000000000 ) ) ;
#40 = MECHANICAL_CONTEXT ( 'NONE', #58, 'mechanical' ) ;
#41 = APPROVAL_ROLE ( '' ) ;
#42 = CC_DESIGN_PERSON_AND_ORGANIZATION_ASSIGNMENT ( #35, #129, ( #44 ) ) ;
#43 = PERSON_AND_ORGANIZATION ( #10, #151 ) ;
#44 = PRODUCT_DEFINITION_FORMATION_WITH_SPECIFIED_SOURCE ( 'ANY', '', #173, .NOT_KNOWN. ) ;
#45 = APPROVAL_PERSON_ORGANIZATION ( #31, #59, #41 ) ;
#46 = CC_DESIGN_PERSON_AND_ORGANIZATION_ASSIGNMENT ( #43, #150, ( #173 ) ) ;
#47 = DIRECTION ( 'NONE',  ( 1.000000000000000000, 0.0000000000000000000, 0.0000000000000000000 ) ) ;
#48 = DATE_AND_TIME ( #152, #13 ) ;
#49 = APPROVAL ( #103, 'UNSPECIFIED' ) ;
#50 = CARTESIAN_POINT ( 'NONE',  ( -0.7500000000000000000, 0.0000000000000000000, 0.0000000000000000000 ) ) ;
#51 = VECTOR ( 'NONE', #80, 1000.000000000000000 ) ;
#52 = CARTESIAN_POINT ( 'NONE',  ( -0.7500000000000000000, 0.0000000000000000000, 12.69999999999999900 ) ) ;
#53 = DATE_TIME_ROLE ( 'classification_date' ) ;
#54 = DIRECTION ( 'NONE',  ( 0.0000000000000000000, 0.0000000000000000000, -1.000000000000000000 ) ) ;
#55 = CIRCLE ( 'NONE', #22, 12.69999999999999900 ) ;
#56 = CIRCLE ( 'NONE', #110, 12.69999999999999900 ) ;
#57 = DIRECTION ( 'NONE',  ( -1.000000000000000000, -0.0000000000000000000, -0.0000000000000000000 ) ) ;
#58 = APPLICATION_CONTEXT ( 'configuration controlled 3d designs of mechanical parts and assemblies' ) ;
#59 = APPROVAL ( #90, 'UNSPECIFIED' ) ;
#60 = DATE_TIME_ROLE ( 'creation_date' ) ;
#61 = PERSON_AND_ORGANIZATION ( #10, #151 ) ;
#62 = SHAPE_DEFINITION_REPRESENTATION ( #171, #28 ) ;
#63 = ORIENTED_EDGE ( 'NONE', *, *, #17, .F. ) ;
#64 = SECURITY_CLASSIFICATION ( '', '', #175 ) ;
#65 = DATE_AND_TIME ( #113, #125 ) ;
#66 = LINE ( 'NONE', #139, #134 ) ;
#67 = DATE_AND_TIME ( #85, #104 ) ;
#68 = VERTEX_POINT ( 'NONE', #75 ) ;
#69 = CLOSED_SHELL ( 'NONE', ( #123, #140, #83, #5 ) ) ;
#70 = LINE ( 'NONE', #16, #51 ) ;
#71 = DIRECTION ( 'NONE',  ( 0.0000000000000000000, 0.0000000000000000000, 1.000000000000000000 ) ) ;
#72 = CC_DESIGN_APPROVAL ( #59, ( #44 ) ) ;
#73 = PERSON_AND_ORGANIZATION ( #10, #151 ) ;
#74 = DIRECTION ( 'NONE',  ( 0.0000000000000000000, 0.0000000000000000000, -1.000000000000000000 ) ) ;
#75 = CARTESIAN_POINT ( 'NONE',  ( 0.7500000000000000000, 1.555301434917138400E-015, -12.69999999999999900 ) ) ;
#76 = AXIS2_PLACEMENT_3D ( 'NONE', #127, #27, #163 ) ;
#77 = PERSON_AND_ORGANIZATION_ROLE ( 'classification_officer' ) ;
#78 = APPLICATION_CONTEXT ( 'configuration controlled 3d designs of mechanical parts and assemblies' ) ;
#79 = AXIS2_PLACEMENT_3D ( 'NONE', #162, #23, #26 ) ;
#80 = DIRECTION ( 'NONE',  ( -1.000000000000000000, -0.0000000000000000000, -0.0000000000000000000 ) ) ;
#81 = CARTESIAN_POINT ( 'NONE',  ( 0.7500000000000000000, 0.0000000000000000000, 0.0000000000000000000 ) ) ;
#82 = ORIENTED_EDGE ( 'NONE', *, *, #160, .F. ) ;
#83 = ADVANCED_FACE ( 'NONE', ( #119 ), #147, .T. ) ;
#84 = CC_DESIGN_DATE_AND_TIME_ASSIGNMENT ( #88, #53, ( #64 ) ) ;
#85 = CALENDAR_DATE ( 2018, 15, 3 ) ;
#86 = CC_DESIGN_APPROVAL ( #143, ( #11 ) ) ;
#87 = DIRECTION ( 'NONE',  ( 0.0000000000000000000, 0.0000000000000000000, -1.000000000000000000 ) ) ;
#88 = DATE_AND_TIME ( #100, #24 ) ;
#89 = CARTESIAN_POINT ( 'NONE',  ( 0.7500000000000000000, 0.0000000000000000000, 0.0000000000000000000 ) ) ;
#90 = APPROVAL_STATUS ( 'not_yet_approved' ) ;
#91 =( NAMED_UNIT ( * ) PLANE_ANGLE_UNIT ( ) SI_UNIT ( $, .RADIAN. ) );
#92 = CIRCLE ( 'NONE', #126, 12.69999999999999900 ) ;
#93 = APPROVAL_ROLE ( '' ) ;
#94 = VERTEX_POINT ( 'NONE', #111 ) ;
#95 = PERSON_AND_ORGANIZATION ( #10, #151 ) ;
#96 = CC_DESIGN_PERSON_AND_ORGANIZATION_ASSIGNMENT ( #73, #77, ( #64 ) ) ;
#97 = CALENDAR_DATE ( 2018, 15, 3 ) ;
#98 = ORIENTED_EDGE ( 'NONE', *, *, #149, .F. ) ;
#99 = DIRECTION ( 'NONE',  ( 1.000000000000000000, 0.0000000000000000000, 0.0000000000000000000 ) ) ;
#100 = CALENDAR_DATE ( 2018, 15, 3 ) ;
#101 = CARTESIAN_POINT ( 'NONE',  ( 0.7500000000000000000, 0.0000000000000000000, 0.0000000000000000000 ) ) ;
#102 = ORIENTED_EDGE ( 'NONE', *, *, #160, .T. ) ;
#103 = APPROVAL_STATUS ( 'not_yet_approved' ) ;
#104 = LOCAL_TIME ( 14, 32, 29.00000000000000000, #157 ) ;
#105 = COORDINATED_UNIVERSAL_TIME_OFFSET ( 5, 0, .BEHIND. ) ;
#106 = CC_DESIGN_APPROVAL ( #49, ( #64 ) ) ;
#107 = APPROVAL_DATE_TIME ( #48, #143 ) ;
#108 = VERTEX_POINT ( 'NONE', #12 ) ;
#109 = EDGE_LOOP ( 'NONE', ( #63, #170, #25, #98 ) ) ;
#110 = AXIS2_PLACEMENT_3D ( 'NONE', #101, #47, #87 ) ;
#111 = CARTESIAN_POINT ( 'NONE',  ( 0.7500000000000000000, 0.0000000000000000000, 12.69999999999999900 ) ) ;
#112 = DIRECTION ( 'NONE',  ( 0.0000000000000000000, 0.0000000000000000000, -1.000000000000000000 ) ) ;
#113 = CALENDAR_DATE ( 2018, 15, 3 ) ;
#114 = CARTESIAN_POINT ( 'NONE',  ( -0.7500000000000000000, 0.0000000000000000000, 0.0000000000000000000 ) ) ;
#115 = DIRECTION ( 'NONE',  ( -1.000000000000000000, -0.0000000000000000000, -0.0000000000000000000 ) ) ;
#116 = CC_DESIGN_SECURITY_CLASSIFICATION ( #64, ( #44 ) ) ;
#117 = DIRECTION ( 'NONE',  ( 1.000000000000000000, 0.0000000000000000000, 0.0000000000000000000 ) ) ;
#118 = FACE_OUTER_BOUND ( 'NONE', #109, .T. ) ;
#119 = FACE_OUTER_BOUND ( 'NONE', #14, .T. ) ;
#120 = ORIENTED_EDGE ( 'NONE', *, *, #124, .T. ) ;
#121 =( LENGTH_UNIT ( ) NAMED_UNIT ( * ) SI_UNIT ( .MILLI., .METRE. ) );
#122 = CC_DESIGN_PERSON_AND_ORGANIZATION_ASSIGNMENT ( #138, #37, ( #44 ) ) ;
#123 = ADVANCED_FACE ( 'NONE', ( #118 ), #159, .T. ) ;
#124 = EDGE_CURVE ( 'NONE', #2, #108, #92, .T. ) ;
#125 = LOCAL_TIME ( 14, 32, 29.00000000000000000, #137 ) ;
#126 = AXIS2_PLACEMENT_3D ( 'NONE', #50, #99, #74 ) ;
#127 = CARTESIAN_POINT ( 'NONE',  ( 0.7500000000000000000, 0.0000000000000000000, 0.0000000000000000000 ) ) ;
#128 = COORDINATED_UNIVERSAL_TIME_OFFSET ( 5, 0, .BEHIND. ) ;
#129 = PERSON_AND_ORGANIZATION_ROLE ( 'creator' ) ;
#130 = CARTESIAN_POINT ( 'NONE',  ( 0.0000000000000000000, 0.0000000000000000000, 0.0000000000000000000 ) ) ;
#131 = DATE_AND_TIME ( #97, #174 ) ;
#132 =( GEOMETRIC_REPRESENTATION_CONTEXT ( 3 ) GLOBAL_UNCERTAINTY_ASSIGNED_CONTEXT ( ( #161 ) ) GLOBAL_UNIT_ASSIGNED_CONTEXT ( ( #121, #91, #18 ) ) REPRESENTATION_CONTEXT ( 'NONE', 'WORKASPACE' ) );
#133 = APPROVAL_DATE_TIME ( #65, #59 ) ;
#134 = VECTOR ( 'NONE', #115, 1000.000000000000000 ) ;
#135 = EDGE_LOOP ( 'NONE', ( #36, #82, #146, #120 ) ) ;
#136 = EDGE_CURVE ( 'NONE', #68, #108, #66, .T. ) ;
#137 = COORDINATED_UNIVERSAL_TIME_OFFSET ( 5, 0, .BEHIND. ) ;
#138 = PERSON_AND_ORGANIZATION ( #10, #151 ) ;
#139 = CARTESIAN_POINT ( 'NONE',  ( 0.7500000000000000000, 1.555301434917138400E-015, -12.69999999999999900 ) ) ;
#140 = ADVANCED_FACE ( 'NONE', ( #141 ), #158, .T. ) ;
#141 = FACE_OUTER_BOUND ( 'NONE', #135, .T. ) ;
#142 = APPLICATION_PROTOCOL_DEFINITION ( 'international standard', 'config_control_design', 1994, #78 ) ;
#143 = APPROVAL ( #29, 'UNSPECIFIED' ) ;
#144 = AXIS2_PLACEMENT_3D ( 'NONE', #114, #9, #112 ) ;
#145 = PRODUCT_RELATED_PRODUCT_CATEGORY ( 'detail', '', ( #173 ) ) ;
#146 = ORIENTED_EDGE ( 'NONE', *, *, #149, .T. ) ;
#147 = PLANE ( 'NONE',  #76 ) ;
#148 = PLANE ( 'NONE',  #79 ) ;
#149 = EDGE_CURVE ( 'NONE', #94, #2, #70, .T. ) ;
#150 = PERSON_AND_ORGANIZATION_ROLE ( 'design_owner' ) ;
#151 = ORGANIZATION ( 'UNSPECIFIED', 'UNSPECIFIED', '' ) ;
#152 = CALENDAR_DATE ( 2018, 15, 3 ) ;
#153 = AXIS2_PLACEMENT_3D ( 'NONE', #89, #34, #71 ) ;
#154 = CC_DESIGN_PERSON_AND_ORGANIZATION_ASSIGNMENT ( #21, #167, ( #11 ) ) ;
#155 = APPROVAL_PERSON_ORGANIZATION ( #95, #143, #93 ) ;
#156 = ORIENTED_EDGE ( 'NONE', *, *, #17, .T. ) ;
#157 = COORDINATED_UNIVERSAL_TIME_OFFSET ( 5, 0, .BEHIND. ) ;
#158 = CYLINDRICAL_SURFACE ( 'NONE', #8, 12.69999999999999900 ) ;
#159 = CYLINDRICAL_SURFACE ( 'NONE', #153, 12.69999999999999900 ) ;
#160 = EDGE_CURVE ( 'NONE', #94, #68, #55, .T. ) ;
#161 = UNCERTAINTY_MEASURE_WITH_UNIT (LENGTH_MEASURE( 1.000000000000000100E-005 ), #121, 'distance_accuracy_value', 'NONE');
#162 = CARTESIAN_POINT ( 'NONE',  ( -0.7500000000000000000, 0.0000000000000000000, 0.0000000000000000000 ) ) ;
#163 = DIRECTION ( 'NONE',  ( 0.0000000000000000000, 0.0000000000000000000, -1.000000000000000000 ) ) ;
#164 = ORIENTED_EDGE ( 'NONE', *, *, #38, .F. ) ;
#165 = APPROVAL_ROLE ( '' ) ;
#166 = COORDINATED_UNIVERSAL_TIME_OFFSET ( 5, 0, .BEHIND. ) ;
#167 = PERSON_AND_ORGANIZATION_ROLE ( 'creator' ) ;
#168 = DIRECTION ( 'NONE',  ( 0.0000000000000000000, 0.0000000000000000000, 1.000000000000000000 ) ) ;
#169 = CIRCLE ( 'NONE', #144, 12.69999999999999900 ) ;
#170 = ORIENTED_EDGE ( 'NONE', *, *, #136, .T. ) ;
#171 = PRODUCT_DEFINITION_SHAPE ( 'NONE', 'NONE',  #11 ) ;
#172 = FACE_OUTER_BOUND ( 'NONE', #32, .T. ) ;
#173 = PRODUCT ( 'Web Model 46458_47608', 'Web Model 46458_47608', '', ( #40 ) ) ;
#174 = LOCAL_TIME ( 14, 32, 29.00000000000000000, #166 ) ;
#175 = SECURITY_CLASSIFICATION_LEVEL ( 'unclassified' ) ;
ENDSEC;
END-ISO-10303-21;
