ISO-10303-21;
HEADER;
FILE_DESCRIPTION (( 'STEP AP203' ),
    '1' );
FILE_NAME ('Web Model 45569_11925.step',
    '2019-01-07T15:34:23',
    ( '' ),
    ( '' ),
    'SwSTEP 2.0',
    'SolidWorks 2016',
    '' );
FILE_SCHEMA (( 'CONFIG_CONTROL_DESIGN' ));
ENDSEC;

DATA;
#1 = CARTESIAN_POINT ( 'NONE',  ( 0.0000000000000000000, 0.0000000000000000000, 1.500000000000000000 ) ) ;
#2 = VECTOR ( 'NONE', #163, 1000.000000000000000 ) ;
#3 = ADVANCED_FACE ( 'NONE', ( #71 ), #16, .T. ) ;
#4 = CARTESIAN_POINT ( 'NONE',  ( -15.00000000000000000, 0.0000000000000000000, 1.500000000000000000 ) ) ;
#5 = CC_DESIGN_DATE_AND_TIME_ASSIGNMENT ( #151, #61, ( #175 ) ) ;
#6 = LOCAL_TIME ( 10, 34, 23.00000000000000000, #129 ) ;
#7 = ADVANCED_BREP_SHAPE_REPRESENTATION ( 'Web Model 45569_11925', ( #59, #154 ), #35 ) ;
#8 = CC_DESIGN_APPROVAL ( #70, ( #175 ) ) ;
#9 = COORDINATED_UNIVERSAL_TIME_OFFSET ( 5, 0, .BEHIND. ) ;
#10 = CARTESIAN_POINT ( 'NONE',  ( 15.00000000000000000, 1.836970198721029600E-015, 1.500000000000000000 ) ) ;
#11 = CC_DESIGN_PERSON_AND_ORGANIZATION_ASSIGNMENT ( #20, #56, ( #31 ) ) ;
#12 = CARTESIAN_POINT ( 'NONE',  ( 0.0000000000000000000, 0.0000000000000000000, -1.500000000000000000 ) ) ;
#13 = PERSON ( 'UNSPECIFIED', 'UNSPECIFIED', 'UNSPECIFIED', ('UNSPECIFIED'), ('UNSPECIFIED'), ('UNSPECIFIED') ) ;
#14 = ADVANCED_FACE ( 'NONE', ( #81 ), #148, .F. ) ;
#15 = ADVANCED_FACE ( 'NONE', ( #128 ), #96, .T. ) ;
#16 = CYLINDRICAL_SURFACE ( 'NONE', #131, 15.00000000000000000 ) ;
#17 = AXIS2_PLACEMENT_3D ( 'NONE', #49, #124, #33 ) ;
#18 = CLOSED_SHELL ( 'NONE', ( #3, #15, #29, #14 ) ) ;
#19 = LOCAL_TIME ( 10, 34, 23.00000000000000000, #48 ) ;
#20 = PERSON_AND_ORGANIZATION ( #13, #75 ) ;
#21 = EDGE_CURVE ( 'NONE', #62, #104, #27, .T. ) ;
#22 = SECURITY_CLASSIFICATION_LEVEL ( 'unclassified' ) ;
#23 = DATE_AND_TIME ( #106, #133 ) ;
#24 = APPLICATION_PROTOCOL_DEFINITION ( 'international standard', 'config_control_design', 1994, #86 ) ;
#25 = DIRECTION ( 'NONE',  ( 0.0000000000000000000, 0.0000000000000000000, 1.000000000000000000 ) ) ;
#26 = AXIS2_PLACEMENT_3D ( 'NONE', #100, #25, #88 ) ;
#27 = CIRCLE ( 'NONE', #17, 15.00000000000000000 ) ;
#28 = ORIENTED_EDGE ( 'NONE', *, *, #53, .F. ) ;
#29 = ADVANCED_FACE ( 'NONE', ( #143 ), #50, .T. ) ;
#30 = DIRECTION ( 'NONE',  ( 0.0000000000000000000, 0.0000000000000000000, 1.000000000000000000 ) ) ;
#31 = SECURITY_CLASSIFICATION ( '', '', #22 ) ;
#32 = COORDINATED_UNIVERSAL_TIME_OFFSET ( 5, 0, .BEHIND. ) ;
#33 = DIRECTION ( 'NONE',  ( 1.000000000000000000, 0.0000000000000000000, 0.0000000000000000000 ) ) ;
#34 = PERSON_AND_ORGANIZATION ( #13, #75 ) ;
#35 =( GEOMETRIC_REPRESENTATION_CONTEXT ( 3 ) GLOBAL_UNCERTAINTY_ASSIGNED_CONTEXT ( ( #43 ) ) GLOBAL_UNIT_ASSIGNED_CONTEXT ( ( #118, #73, #44 ) ) REPRESENTATION_CONTEXT ( 'NONE', 'WORKASPACE' ) );
#36 = ORIENTED_EDGE ( 'NONE', *, *, #171, .T. ) ;
#37 = APPROVAL_DATE_TIME ( #174, #70 ) ;
#38 = CC_DESIGN_APPROVAL ( #159, ( #111 ) ) ;
#39 = CIRCLE ( 'NONE', #60, 15.00000000000000000 ) ;
#40 = CC_DESIGN_APPROVAL ( #103, ( #31 ) ) ;
#41 = APPLICATION_CONTEXT ( 'configuration controlled 3d designs of mechanical parts and assemblies' ) ;
#42 = COORDINATED_UNIVERSAL_TIME_OFFSET ( 5, 0, .BEHIND. ) ;
#43 = UNCERTAINTY_MEASURE_WITH_UNIT (LENGTH_MEASURE( 1.000000000000000100E-005 ), #118, 'distance_accuracy_value', 'NONE');
#44 =( NAMED_UNIT ( * ) SI_UNIT ( $, .STERADIAN. ) SOLID_ANGLE_UNIT ( ) );
#45 = CARTESIAN_POINT ( 'NONE',  ( 0.0000000000000000000, 0.0000000000000000000, 1.500000000000000000 ) ) ;
#46 = EDGE_CURVE ( 'NONE', #104, #62, #156, .T. ) ;
#47 = DIRECTION ( 'NONE',  ( -1.000000000000000000, 0.0000000000000000000, 0.0000000000000000000 ) ) ;
#48 = COORDINATED_UNIVERSAL_TIME_OFFSET ( 5, 0, .BEHIND. ) ;
#49 = CARTESIAN_POINT ( 'NONE',  ( 0.0000000000000000000, 0.0000000000000000000, 1.500000000000000000 ) ) ;
#50 = PLANE ( 'NONE',  #123 ) ;
#51 = AXIS2_PLACEMENT_3D ( 'NONE', #1, #30, #107 ) ;
#52 = EDGE_LOOP ( 'NONE', ( #108, #85, #79, #36 ) ) ;
#53 = EDGE_CURVE ( 'NONE', #62, #153, #120, .T. ) ;
#54 = PERSON_AND_ORGANIZATION ( #13, #75 ) ;
#55 = ORIENTED_EDGE ( 'NONE', *, *, #21, .T. ) ;
#56 = PERSON_AND_ORGANIZATION_ROLE ( 'classification_officer' ) ;
#57 = CALENDAR_DATE ( 2019, 7, 1 ) ;
#58 = APPROVAL_STATUS ( 'not_yet_approved' ) ;
#59 = MANIFOLD_SOLID_BREP ( 'Boss-Extrude1', #18 ) ;
#60 = AXIS2_PLACEMENT_3D ( 'NONE', #78, #146, #134 ) ;
#61 = DATE_TIME_ROLE ( 'creation_date' ) ;
#62 = VERTEX_POINT ( 'NONE', #4 ) ;
#63 = DIRECTION ( 'NONE',  ( 0.0000000000000000000, 0.0000000000000000000, 1.000000000000000000 ) ) ;
#64 = CC_DESIGN_SECURITY_CLASSIFICATION ( #31, ( #111 ) ) ;
#65 = PERSON_AND_ORGANIZATION ( #13, #75 ) ;
#66 = DIRECTION ( 'NONE',  ( 0.0000000000000000000, 0.0000000000000000000, 1.000000000000000000 ) ) ;
#67 = EDGE_LOOP ( 'NONE', ( #173, #80, #93, #28 ) ) ;
#68 = APPROVAL_PERSON_ORGANIZATION ( #101, #70, #84 ) ;
#69 = PERSON_AND_ORGANIZATION ( #13, #75 ) ;
#70 = APPROVAL ( #172, 'UNSPECIFIED' ) ;
#71 = FACE_OUTER_BOUND ( 'NONE', #67, .T. ) ;
#72 = EDGE_CURVE ( 'NONE', #165, #153, #39, .T. ) ;
#73 =( NAMED_UNIT ( * ) PLANE_ANGLE_UNIT ( ) SI_UNIT ( $, .RADIAN. ) );
#74 = CARTESIAN_POINT ( 'NONE',  ( 15.00000000000000000, 1.836970198721029600E-015, -1.500000000000000000 ) ) ;
#75 = ORGANIZATION ( 'UNSPECIFIED', 'UNSPECIFIED', '' ) ;
#76 = APPROVAL_ROLE ( '' ) ;
#77 = CC_DESIGN_PERSON_AND_ORGANIZATION_ASSIGNMENT ( #145, #157, ( #111 ) ) ;
#78 = CARTESIAN_POINT ( 'NONE',  ( 0.0000000000000000000, 0.0000000000000000000, -1.500000000000000000 ) ) ;
#79 = ORIENTED_EDGE ( 'NONE', *, *, #53, .T. ) ;
#80 = ORIENTED_EDGE ( 'NONE', *, *, #116, .T. ) ;
#81 = FACE_OUTER_BOUND ( 'NONE', #161, .T. ) ;
#82 = DIRECTION ( 'NONE',  ( -1.000000000000000000, 0.0000000000000000000, 0.0000000000000000000 ) ) ;
#83 = CC_DESIGN_PERSON_AND_ORGANIZATION_ASSIGNMENT ( #65, #90, ( #111 ) ) ;
#84 = APPROVAL_ROLE ( '' ) ;
#85 = ORIENTED_EDGE ( 'NONE', *, *, #21, .F. ) ;
#86 = APPLICATION_CONTEXT ( 'configuration controlled 3d designs of mechanical parts and assemblies' ) ;
#87 = LOCAL_TIME ( 10, 34, 23.00000000000000000, #9 ) ;
#88 = DIRECTION ( 'NONE',  ( 1.000000000000000000, 0.0000000000000000000, 0.0000000000000000000 ) ) ;
#89 = PERSON_AND_ORGANIZATION_ROLE ( 'design_owner' ) ;
#90 = PERSON_AND_ORGANIZATION_ROLE ( 'design_supplier' ) ;
#91 = PRODUCT ( 'Web Model 45569_11925', 'Web Model 45569_11925', '', ( #136 ) ) ;
#92 = CIRCLE ( 'NONE', #26, 15.00000000000000000 ) ;
#93 = ORIENTED_EDGE ( 'NONE', *, *, #72, .T. ) ;
#94 = APPROVAL_PERSON_ORGANIZATION ( #54, #103, #144 ) ;
#95 = CC_DESIGN_DATE_AND_TIME_ASSIGNMENT ( #119, #169, ( #31 ) ) ;
#96 = CYLINDRICAL_SURFACE ( 'NONE', #166, 15.00000000000000000 ) ;
#97 = APPROVAL_DATE_TIME ( #127, #103 ) ;
#98 = APPROVAL_DATE_TIME ( #23, #159 ) ;
#99 = CC_DESIGN_PERSON_AND_ORGANIZATION_ASSIGNMENT ( #69, #139, ( #175 ) ) ;
#100 = CARTESIAN_POINT ( 'NONE',  ( 0.0000000000000000000, 0.0000000000000000000, -1.500000000000000000 ) ) ;
#101 = PERSON_AND_ORGANIZATION ( #13, #75 ) ;
#102 = DIRECTION ( 'NONE',  ( -0.0000000000000000000, -0.0000000000000000000, -1.000000000000000000 ) ) ;
#103 = APPROVAL ( #58, 'UNSPECIFIED' ) ;
#104 = VERTEX_POINT ( 'NONE', #170 ) ;
#105 = CARTESIAN_POINT ( 'NONE',  ( 0.0000000000000000000, 0.0000000000000000000, 1.500000000000000000 ) ) ;
#106 = CALENDAR_DATE ( 2019, 7, 1 ) ;
#107 = DIRECTION ( 'NONE',  ( 1.000000000000000000, 0.0000000000000000000, 0.0000000000000000000 ) ) ;
#108 = ORIENTED_EDGE ( 'NONE', *, *, #116, .F. ) ;
#109 = PRODUCT_RELATED_PRODUCT_CATEGORY ( 'detail', '', ( #91 ) ) ;
#110 = VECTOR ( 'NONE', #115, 1000.000000000000000 ) ;
#111 = PRODUCT_DEFINITION_FORMATION_WITH_SPECIFIED_SOURCE ( 'ANY', '', #91, .NOT_KNOWN. ) ;
#112 = APPLICATION_PROTOCOL_DEFINITION ( 'international standard', 'config_control_design', 1994, #41 ) ;
#113 = CARTESIAN_POINT ( 'NONE',  ( 0.0000000000000000000, 0.0000000000000000000, 0.0000000000000000000 ) ) ;
#114 = CARTESIAN_POINT ( 'NONE',  ( -15.00000000000000000, 0.0000000000000000000, -1.500000000000000000 ) ) ;
#115 = DIRECTION ( 'NONE',  ( -0.0000000000000000000, -0.0000000000000000000, -1.000000000000000000 ) ) ;
#116 = EDGE_CURVE ( 'NONE', #104, #165, #152, .T. ) ;
#117 = DESIGN_CONTEXT ( 'detailed design', #41, 'design' ) ;
#118 =( LENGTH_UNIT ( ) NAMED_UNIT ( * ) SI_UNIT ( .MILLI., .METRE. ) );
#119 = DATE_AND_TIME ( #57, #125 ) ;
#120 = LINE ( 'NONE', #162, #2 ) ;
#121 = DIRECTION ( 'NONE',  ( 1.000000000000000000, 0.0000000000000000000, 0.0000000000000000000 ) ) ;
#122 = APPROVAL_PERSON_ORGANIZATION ( #140, #159, #76 ) ;
#123 = AXIS2_PLACEMENT_3D ( 'NONE', #141, #66, #150 ) ;
#124 = DIRECTION ( 'NONE',  ( 0.0000000000000000000, 0.0000000000000000000, 1.000000000000000000 ) ) ;
#125 = LOCAL_TIME ( 10, 34, 23.00000000000000000, #42 ) ;
#126 = PRODUCT_DEFINITION_SHAPE ( 'NONE', 'NONE',  #175 ) ;
#127 = DATE_AND_TIME ( #158, #87 ) ;
#128 = FACE_OUTER_BOUND ( 'NONE', #52, .T. ) ;
#129 = COORDINATED_UNIVERSAL_TIME_OFFSET ( 5, 0, .BEHIND. ) ;
#130 = CC_DESIGN_PERSON_AND_ORGANIZATION_ASSIGNMENT ( #34, #89, ( #91 ) ) ;
#131 = AXIS2_PLACEMENT_3D ( 'NONE', #45, #102, #47 ) ;
#132 = ORIENTED_EDGE ( 'NONE', *, *, #72, .F. ) ;
#133 = LOCAL_TIME ( 10, 34, 23.00000000000000000, #32 ) ;
#134 = DIRECTION ( 'NONE',  ( 1.000000000000000000, 0.0000000000000000000, 0.0000000000000000000 ) ) ;
#135 = APPROVAL_STATUS ( 'not_yet_approved' ) ;
#136 = MECHANICAL_CONTEXT ( 'NONE', #86, 'mechanical' ) ;
#137 = ORIENTED_EDGE ( 'NONE', *, *, #171, .F. ) ;
#138 = SHAPE_DEFINITION_REPRESENTATION ( #126, #7 ) ;
#139 = PERSON_AND_ORGANIZATION_ROLE ( 'creator' ) ;
#140 = PERSON_AND_ORGANIZATION ( #13, #75 ) ;
#141 = CARTESIAN_POINT ( 'NONE',  ( 0.0000000000000000000, 0.0000000000000000000, 1.500000000000000000 ) ) ;
#142 = AXIS2_PLACEMENT_3D ( 'NONE', #12, #63, #149 ) ;
#143 = FACE_OUTER_BOUND ( 'NONE', #167, .T. ) ;
#144 = APPROVAL_ROLE ( '' ) ;
#145 = PERSON_AND_ORGANIZATION ( #13, #75 ) ;
#146 = DIRECTION ( 'NONE',  ( 0.0000000000000000000, 0.0000000000000000000, 1.000000000000000000 ) ) ;
#147 = DIRECTION ( 'NONE',  ( 0.0000000000000000000, 0.0000000000000000000, 1.000000000000000000 ) ) ;
#148 = PLANE ( 'NONE',  #142 ) ;
#149 = DIRECTION ( 'NONE',  ( 1.000000000000000000, 0.0000000000000000000, -0.0000000000000000000 ) ) ;
#150 = DIRECTION ( 'NONE',  ( 1.000000000000000000, 0.0000000000000000000, -0.0000000000000000000 ) ) ;
#151 = DATE_AND_TIME ( #168, #6 ) ;
#152 = LINE ( 'NONE', #10, #110 ) ;
#153 = VERTEX_POINT ( 'NONE', #114 ) ;
#154 = AXIS2_PLACEMENT_3D ( 'NONE', #113, #147, #121 ) ;
#155 = CALENDAR_DATE ( 2019, 7, 1 ) ;
#156 = CIRCLE ( 'NONE', #51, 15.00000000000000000 ) ;
#157 = PERSON_AND_ORGANIZATION_ROLE ( 'creator' ) ;
#158 = CALENDAR_DATE ( 2019, 7, 1 ) ;
#159 = APPROVAL ( #135, 'UNSPECIFIED' ) ;
#160 = DIRECTION ( 'NONE',  ( -0.0000000000000000000, -0.0000000000000000000, -1.000000000000000000 ) ) ;
#161 = EDGE_LOOP ( 'NONE', ( #137, #132 ) ) ;
#162 = CARTESIAN_POINT ( 'NONE',  ( -15.00000000000000000, 0.0000000000000000000, 1.500000000000000000 ) ) ;
#163 = DIRECTION ( 'NONE',  ( -0.0000000000000000000, -0.0000000000000000000, -1.000000000000000000 ) ) ;
#164 = ORIENTED_EDGE ( 'NONE', *, *, #46, .T. ) ;
#165 = VERTEX_POINT ( 'NONE', #74 ) ;
#166 = AXIS2_PLACEMENT_3D ( 'NONE', #105, #160, #82 ) ;
#167 = EDGE_LOOP ( 'NONE', ( #55, #164 ) ) ;
#168 = CALENDAR_DATE ( 2019, 7, 1 ) ;
#169 = DATE_TIME_ROLE ( 'classification_date' ) ;
#170 = CARTESIAN_POINT ( 'NONE',  ( 15.00000000000000000, 1.836970198721029600E-015, 1.500000000000000000 ) ) ;
#171 = EDGE_CURVE ( 'NONE', #153, #165, #92, .T. ) ;
#172 = APPROVAL_STATUS ( 'not_yet_approved' ) ;
#173 = ORIENTED_EDGE ( 'NONE', *, *, #46, .F. ) ;
#174 = DATE_AND_TIME ( #155, #19 ) ;
#175 = PRODUCT_DEFINITION ( 'UNKNOWN', '', #111, #117 ) ;
ENDSEC;
END-ISO-10303-21;
