ISO-10303-21;
HEADER;
FILE_DESCRIPTION (( 'STEP AP203' ),
    '1' );
FILE_NAME ('Web Model 34243_17665.step',
    '2021-06-28T18:56:30',
    ( '' ),
    ( '' ),
    'SwSTEP 2.0',
    'SolidWorks 2018',
    '' );
FILE_SCHEMA (( 'CONFIG_CONTROL_DESIGN' ));
ENDSEC;

DATA;
#1 = DATE_AND_TIME ( #7, #42 ) ;
#2 = ORIENTED_EDGE ( 'NONE', *, *, #27, .T. ) ;
#3 = CARTESIAN_POINT ( 'NONE',  ( 0.000000000000000000, 0.000000000000000000, -3.436343389537585669 ) ) ;
#4 = AXIS2_PLACEMENT_3D ( 'NONE', #20, #48, #168 ) ;
#5 = CARTESIAN_POINT ( 'NONE',  ( 0.000000000000000000, 0.000000000000000000, 0.000000000000000000 ) ) ;
#6 = APPROVAL_ROLE ( '' ) ;
#7 = CALENDAR_DATE ( 2021, 28, 6 ) ;
#8 = CARTESIAN_POINT ( 'NONE',  ( 0.000000000000000000, 0.000000000000000000, 0.000000000000000000 ) ) ;
#9 = EDGE_LOOP ( 'NONE', ( #117, #2 ) ) ;
#10 = ORIENTED_EDGE ( 'NONE', *, *, #53, .F. ) ;
#11 = LINE ( 'NONE', #70, #45 ) ;
#12 = EDGE_CURVE ( 'NONE', #65, #175, #36, .T. ) ;
#13 = PRODUCT_RELATED_PRODUCT_CATEGORY ( 'detail', '', ( #104 ) ) ;
#14 = PLANE ( 'NONE',  #97 ) ;
#15 = COORDINATED_UNIVERSAL_TIME_OFFSET ( 5, 0, .BEHIND. ) ;
#16 = CARTESIAN_POINT ( 'NONE',  ( -25.00000000000000000, 3.061616997868383043E-15, -3.436343389537585669 ) ) ;
#17 = DIRECTION ( 'NONE',  ( -0.000000000000000000, -0.000000000000000000, 1.000000000000000000 ) ) ;
#18 = DIRECTION ( 'NONE',  ( 0.000000000000000000, 0.9999619230641713097, 0.008726535498366855270 ) ) ;
#19 = CYLINDRICAL_SURFACE ( 'NONE', #90, 25.00000000000000000 ) ;
#20 = CARTESIAN_POINT ( 'NONE',  ( 0.000000000000000000, 0.000000000000000000, -3.436343389537585669 ) ) ;
#21 =( NAMED_UNIT ( * ) SI_UNIT ( $, .STERADIAN. ) SOLID_ANGLE_UNIT ( ) );
#22 = ORIENTED_EDGE ( 'NONE', *, *, #27, .F. ) ;
#23 = DATE_AND_TIME ( #139, #84 ) ;
#24 = CARTESIAN_POINT ( 'NONE',  ( -25.00000000000002132, 50.00000000000000000, -2.781828305231206944 ) ) ;
#25 = APPROVAL_DATE_TIME ( #55, #131 ) ;
#26 = FACE_OUTER_BOUND ( 'NONE', #127, .T. ) ;
#27 = EDGE_CURVE ( 'NONE', #88, #143, #86, .T. ) ;
#28 = CARTESIAN_POINT ( 'NONE',  ( -25.00000000000000000, 3.061616997868383043E-15, -3.218171694768792612 ) ) ;
#29 = APPROVAL_ROLE ( '' ) ;
#30 = DIRECTION ( 'NONE',  ( 0.000000000000000000, 0.000000000000000000, 1.000000000000000000 ) ) ;
#31 = APPROVAL ( #95, 'UNSPECIFIED' ) ;
#32 = ORIENTED_EDGE ( 'NONE', *, *, #12, .F. ) ;
#33 = APPROVAL_STATUS ( 'not_yet_approved' ) ;
#34 = PRODUCT_DEFINITION ( 'UNKNOWN', '', #146, #41 ) ;
#35 = ADVANCED_FACE ( 'NONE', ( #112 ), #14, .T. ) ;
#36 = CIRCLE ( 'NONE', #60, 25.00000000000000000 ) ;
#37 = PERSON_AND_ORGANIZATION ( #110, #99 ) ;
#38 = EDGE_CURVE ( 'NONE', #143, #65, #11, .T. ) ;
#39 = LOCAL_TIME ( 14, 56, 30.00000000000000000, #15 ) ;
#40 = COORDINATED_UNIVERSAL_TIME_OFFSET ( 5, 0, .BEHIND. ) ;
#41 = DESIGN_CONTEXT ( 'detailed design', #152, 'design' ) ;
#42 = LOCAL_TIME ( 14, 56, 30.00000000000000000, #123 ) ;
#43 = CARTESIAN_POINT ( 'NONE',  ( 25.00000000000000000, 0.000000000000000000, -3.218171694768792612 ) ) ;
#44 = CARTESIAN_POINT ( 'NONE',  ( 25.00000000000000000, 0.000000000000000000, -3.218171694768792612 ) ) ;
#45 = VECTOR ( 'NONE', #166, 1000.000000000000000 ) ;
#46 = APPLICATION_CONTEXT ( 'configuration controlled 3d designs of mechanical parts and assemblies' ) ;
#47 = ORIENTED_EDGE ( 'NONE', *, *, #38, .T. ) ;
#48 = DIRECTION ( 'NONE',  ( -0.000000000000000000, -0.000000000000000000, 1.000000000000000000 ) ) ;
#49 = CARTESIAN_POINT ( 'NONE',  ( 25.00000000000000000, -25.00000000000000000, 0.000000000000000000 ) ) ;
#50 =( LENGTH_UNIT ( ) NAMED_UNIT ( * ) SI_UNIT ( .MILLI., .METRE. ) );
#51 =( BOUNDED_CURVE ( )  B_SPLINE_CURVE ( 3, ( #43, #120, #103, #28 ),
 .UNSPECIFIED., .F., .F. ) 
 B_SPLINE_CURVE_WITH_KNOTS ( ( 4, 4 ),
 ( 1.570796326794896558, 4.712388980384689674 ),
 .UNSPECIFIED. ) 
 CURVE ( )  GEOMETRIC_REPRESENTATION_ITEM ( )  RATIONAL_B_SPLINE_CURVE ( ( 1.000000000000000000, 0.3333333333333333703, 0.3333333333333333703, 1.000000000000000000 ) ) 
 REPRESENTATION_ITEM ( '' )  );
#52 = DATE_AND_TIME ( #116, #39 ) ;
#53 = EDGE_CURVE ( 'NONE', #175, #65, #157, .T. ) ;
#54 = CC_DESIGN_DATE_AND_TIME_ASSIGNMENT ( #23, #124, ( #34 ) ) ;
#55 = DATE_AND_TIME ( #129, #66 ) ;
#56 = EDGE_CURVE ( 'NONE', #88, #175, #64, .T. ) ;
#57 = PERSON_AND_ORGANIZATION ( #110, #99 ) ;
#58 = ADVANCED_BREP_SHAPE_REPRESENTATION ( 'Web Model 34243_17665', ( #73, #114 ), #93 ) ;
#59 = DIRECTION ( 'NONE',  ( 0.000000000000000000, 0.000000000000000000, 1.000000000000000000 ) ) ;
#60 = AXIS2_PLACEMENT_3D ( 'NONE', #158, #61, #102 ) ;
#61 = DIRECTION ( 'NONE',  ( 0.000000000000000000, 0.000000000000000000, 1.000000000000000000 ) ) ;
#62 = PERSON_AND_ORGANIZATION_ROLE ( 'classification_officer' ) ;
#63 = PERSON_AND_ORGANIZATION_ROLE ( 'creator' ) ;
#64 = LINE ( 'NONE', #16, #138 ) ;
#65 = VERTEX_POINT ( 'NONE', #69 ) ;
#66 = LOCAL_TIME ( 14, 56, 30.00000000000000000, #40 ) ;
#67 = EDGE_LOOP ( 'NONE', ( #130, #101, #47, #10 ) ) ;
#68 = LOCAL_TIME ( 14, 56, 30.00000000000000000, #155 ) ;
#69 = CARTESIAN_POINT ( 'NONE',  ( 25.00000000000000000, 0.000000000000000000, 0.000000000000000000 ) ) ;
#70 = CARTESIAN_POINT ( 'NONE',  ( 25.00000000000000000, 0.000000000000000000, -3.436343389537585669 ) ) ;
#71 = DIRECTION ( 'NONE',  ( -0.000000000000000000, -0.000000000000000000, 1.000000000000000000 ) ) ;
#72 = DIRECTION ( 'NONE',  ( 0.000000000000000000, 0.000000000000000000, 1.000000000000000000 ) ) ;
#73 = MANIFOLD_SOLID_BREP ( 'Cut-Extrude1', #134 ) ;
#74 = AXIS2_PLACEMENT_3D ( 'NONE', #49, #30, #159 ) ;
#75 = PERSON_AND_ORGANIZATION_ROLE ( 'design_supplier' ) ;
#76 = AXIS2_PLACEMENT_3D ( 'NONE', #5, #59, #156 ) ;
#77 = PRODUCT_DEFINITION_SHAPE ( 'NONE', 'NONE',  #34 ) ;
#78 = PERSON_AND_ORGANIZATION ( #110, #99 ) ;
#79 = EDGE_LOOP ( 'NONE', ( #22, #174, #32, #115 ) ) ;
#80 = CC_DESIGN_PERSON_AND_ORGANIZATION_ASSIGNMENT ( #148, #63, ( #146 ) ) ;
#81 = APPROVAL_PERSON_ORGANIZATION ( #173, #31, #133 ) ;
#82 = EDGE_CURVE ( 'NONE', #143, #88, #51, .T. ) ;
#83 = SECURITY_CLASSIFICATION ( '', '', #147 ) ;
#84 = LOCAL_TIME ( 14, 56, 30.00000000000000000, #126 ) ;
#85 = CC_DESIGN_APPROVAL ( #161, ( #146 ) ) ;
#86 =( BOUNDED_CURVE ( )  B_SPLINE_CURVE ( 3, ( #89, #24, #128, #44 ),
 .UNSPECIFIED., .F., .F. ) 
 B_SPLINE_CURVE_WITH_KNOTS ( ( 4, 4 ),
 ( 4.712388980384689674, 7.853981633974482790 ),
 .UNSPECIFIED. ) 
 CURVE ( )  GEOMETRIC_REPRESENTATION_ITEM ( )  RATIONAL_B_SPLINE_CURVE ( ( 1.000000000000000000, 0.3333333333333333703, 0.3333333333333333703, 1.000000000000000000 ) ) 
 REPRESENTATION_ITEM ( '' )  );
#87 = CC_DESIGN_PERSON_AND_ORGANIZATION_ASSIGNMENT ( #37, #107, ( #34 ) ) ;
#88 = VERTEX_POINT ( 'NONE', #165 ) ;
#89 = CARTESIAN_POINT ( 'NONE',  ( -25.00000000000000000, 3.061616997868383043E-15, -3.218171694768792612 ) ) ;
#90 = AXIS2_PLACEMENT_3D ( 'NONE', #3, #71, #135 ) ;
#91 = DIRECTION ( 'NONE',  ( 0.000000000000000000, 0.008726535498366857005, -0.9999619230641714207 ) ) ;
#92 = CYLINDRICAL_SURFACE ( 'NONE', #4, 25.00000000000000000 ) ;
#93 =( GEOMETRIC_REPRESENTATION_CONTEXT ( 3 ) GLOBAL_UNCERTAINTY_ASSIGNED_CONTEXT ( ( #163 ) ) GLOBAL_UNIT_ASSIGNED_CONTEXT ( ( #50, #169, #21 ) ) REPRESENTATION_CONTEXT ( 'NONE', 'WORKASPACE' ) );
#94 = CALENDAR_DATE ( 2021, 28, 6 ) ;
#95 = APPROVAL_STATUS ( 'not_yet_approved' ) ;
#96 = PLANE ( 'NONE',  #74 ) ;
#97 = AXIS2_PLACEMENT_3D ( 'NONE', #144, #91, #18 ) ;
#98 = DATE_AND_TIME ( #94, #68 ) ;
#99 = ORGANIZATION ( 'UNSPECIFIED', 'UNSPECIFIED', '' ) ;
#100 = PERSON_AND_ORGANIZATION ( #110, #99 ) ;
#101 = ORIENTED_EDGE ( 'NONE', *, *, #82, .F. ) ;
#102 = DIRECTION ( 'NONE',  ( 1.000000000000000000, 0.000000000000000000, 0.000000000000000000 ) ) ;
#103 = CARTESIAN_POINT ( 'NONE',  ( -25.00000000000000000, -50.00000000000000000, -3.654515084306378281 ) ) ;
#104 = PRODUCT ( 'Web Model 34243_17665', 'Web Model 34243_17665', '', ( #160 ) ) ;
#105 = CARTESIAN_POINT ( 'NONE',  ( 25.00000000000000000, 0.000000000000000000, -3.218171694768792612 ) ) ;
#106 = FACE_OUTER_BOUND ( 'NONE', #67, .T. ) ;
#107 = PERSON_AND_ORGANIZATION_ROLE ( 'creator' ) ;
#108 = CARTESIAN_POINT ( 'NONE',  ( -25.00000000000000000, 3.061616997868383043E-15, 0.000000000000000000 ) ) ;
#109 = ADVANCED_FACE ( 'NONE', ( #26 ), #96, .T. ) ;
#110 = PERSON ( 'UNSPECIFIED', 'UNSPECIFIED', 'UNSPECIFIED', ('UNSPECIFIED'), ('UNSPECIFIED'), ('UNSPECIFIED') ) ;
#111 = APPROVAL_PERSON_ORGANIZATION ( #137, #161, #6 ) ;
#112 = FACE_OUTER_BOUND ( 'NONE', #9, .T. ) ;
#113 = CC_DESIGN_PERSON_AND_ORGANIZATION_ASSIGNMENT ( #100, #75, ( #146 ) ) ;
#114 = AXIS2_PLACEMENT_3D ( 'NONE', #8, #72, #136 ) ;
#115 = ORIENTED_EDGE ( 'NONE', *, *, #38, .F. ) ;
#116 = CALENDAR_DATE ( 2021, 28, 6 ) ;
#117 = ORIENTED_EDGE ( 'NONE', *, *, #82, .T. ) ;
#118 = CC_DESIGN_APPROVAL ( #131, ( #34 ) ) ;
#119 = CC_DESIGN_PERSON_AND_ORGANIZATION_ASSIGNMENT ( #154, #62, ( #83 ) ) ;
#120 = CARTESIAN_POINT ( 'NONE',  ( 25.00000000000001066, -50.00000000000000000, -3.654515084306378281 ) ) ;
#121 = APPLICATION_PROTOCOL_DEFINITION ( 'international standard', 'config_control_design', 1994, #152 ) ;
#122 = CC_DESIGN_PERSON_AND_ORGANIZATION_ASSIGNMENT ( #57, #171, ( #104 ) ) ;
#123 = COORDINATED_UNIVERSAL_TIME_OFFSET ( 5, 0, .BEHIND. ) ;
#124 = DATE_TIME_ROLE ( 'creation_date' ) ;
#125 = DATE_TIME_ROLE ( 'classification_date' ) ;
#126 = COORDINATED_UNIVERSAL_TIME_OFFSET ( 5, 0, .BEHIND. ) ;
#127 = EDGE_LOOP ( 'NONE', ( #164, #150 ) ) ;
#128 = CARTESIAN_POINT ( 'NONE',  ( 25.00000000000001066, 50.00000000000000000, -2.781828305231206944 ) ) ;
#129 = CALENDAR_DATE ( 2021, 28, 6 ) ;
#130 = ORIENTED_EDGE ( 'NONE', *, *, #56, .F. ) ;
#131 = APPROVAL ( #167, 'UNSPECIFIED' ) ;
#132 = SHAPE_DEFINITION_REPRESENTATION ( #77, #58 ) ;
#133 = APPROVAL_ROLE ( '' ) ;
#134 = CLOSED_SHELL ( 'NONE', ( #151, #109, #145, #35 ) ) ;
#135 = DIRECTION ( 'NONE',  ( 1.000000000000000000, 0.000000000000000000, 0.000000000000000000 ) ) ;
#136 = DIRECTION ( 'NONE',  ( 1.000000000000000000, 0.000000000000000000, 0.000000000000000000 ) ) ;
#137 = PERSON_AND_ORGANIZATION ( #110, #99 ) ;
#138 = VECTOR ( 'NONE', #17, 1000.000000000000000 ) ;
#139 = CALENDAR_DATE ( 2021, 28, 6 ) ;
#140 = CC_DESIGN_DATE_AND_TIME_ASSIGNMENT ( #52, #125, ( #83 ) ) ;
#141 = CC_DESIGN_SECURITY_CLASSIFICATION ( #83, ( #146 ) ) ;
#142 = APPROVAL_DATE_TIME ( #98, #31 ) ;
#143 = VERTEX_POINT ( 'NONE', #105 ) ;
#144 = CARTESIAN_POINT ( 'NONE',  ( 25.00000000000000000, 25.00000000000000000, -3.000000000000000000 ) ) ;
#145 = ADVANCED_FACE ( 'NONE', ( #106 ), #19, .T. ) ;
#146 = PRODUCT_DEFINITION_FORMATION_WITH_SPECIFIED_SOURCE ( 'ANY', '', #104, .NOT_KNOWN. ) ;
#147 = SECURITY_CLASSIFICATION_LEVEL ( 'unclassified' ) ;
#148 = PERSON_AND_ORGANIZATION ( #110, #99 ) ;
#149 = APPLICATION_PROTOCOL_DEFINITION ( 'international standard', 'config_control_design', 1994, #46 ) ;
#150 = ORIENTED_EDGE ( 'NONE', *, *, #53, .T. ) ;
#151 = ADVANCED_FACE ( 'NONE', ( #172 ), #92, .T. ) ;
#152 = APPLICATION_CONTEXT ( 'configuration controlled 3d designs of mechanical parts and assemblies' ) ;
#153 = APPROVAL_DATE_TIME ( #1, #161 ) ;
#154 = PERSON_AND_ORGANIZATION ( #110, #99 ) ;
#155 = COORDINATED_UNIVERSAL_TIME_OFFSET ( 5, 0, .BEHIND. ) ;
#156 = DIRECTION ( 'NONE',  ( 1.000000000000000000, 0.000000000000000000, 0.000000000000000000 ) ) ;
#157 = CIRCLE ( 'NONE', #76, 25.00000000000000000 ) ;
#158 = CARTESIAN_POINT ( 'NONE',  ( 0.000000000000000000, 0.000000000000000000, 0.000000000000000000 ) ) ;
#159 = DIRECTION ( 'NONE',  ( 1.000000000000000000, 0.000000000000000000, -0.000000000000000000 ) ) ;
#160 = MECHANICAL_CONTEXT ( 'NONE', #46, 'mechanical' ) ;
#161 = APPROVAL ( #33, 'UNSPECIFIED' ) ;
#162 = APPROVAL_PERSON_ORGANIZATION ( #78, #131, #29 ) ;
#163 = UNCERTAINTY_MEASURE_WITH_UNIT (LENGTH_MEASURE( 1.000000000000000082E-05 ), #50, 'distance_accuracy_value', 'NONE');
#164 = ORIENTED_EDGE ( 'NONE', *, *, #12, .T. ) ;
#165 = CARTESIAN_POINT ( 'NONE',  ( -25.00000000000000000, 3.061616997868383043E-15, -3.218171694768792612 ) ) ;
#166 = DIRECTION ( 'NONE',  ( -0.000000000000000000, -0.000000000000000000, 1.000000000000000000 ) ) ;
#167 = APPROVAL_STATUS ( 'not_yet_approved' ) ;
#168 = DIRECTION ( 'NONE',  ( 1.000000000000000000, 0.000000000000000000, 0.000000000000000000 ) ) ;
#169 =( NAMED_UNIT ( * ) PLANE_ANGLE_UNIT ( ) SI_UNIT ( $, .RADIAN. ) );
#170 = CC_DESIGN_APPROVAL ( #31, ( #83 ) ) ;
#171 = PERSON_AND_ORGANIZATION_ROLE ( 'design_owner' ) ;
#172 = FACE_OUTER_BOUND ( 'NONE', #79, .T. ) ;
#173 = PERSON_AND_ORGANIZATION ( #110, #99 ) ;
#174 = ORIENTED_EDGE ( 'NONE', *, *, #56, .T. ) ;
#175 = VERTEX_POINT ( 'NONE', #108 ) ;
ENDSEC;
END-ISO-10303-21;
