SolidWorks IGES file using analytic representation for surfaces         S      1
1H,,1H;,5H47193,63H\\eofs\shared\PLM\Chris_L\CAD Projects\TKT# 768\47193G      1
_63107.igs,15HSolidWorks 2016,15HSolidWorks 2016,32,308,15,308,15,5H4719G      2
3,1.,2,2HMM,50,0.125,13H180122.081154,1E-008,499990.,6HCLopez,,11,0,13H1G      3
80122.081154;                                                           G      4
     314       1       0       0       0                        00000200D      1
     314       0       8       1       0                               0D      2
     502       2       0       0       0                        00010000D      3
     502       0       0       1       1                               0D      4
     100       3       0       0       0                        00010000D      5
     100       0       0       1       0                               0D      6
     100       4       0       0       0                        00010000D      7
     100       0       0       1       0                               0D      8
     110       5       0       0       0                        01010000D      9
     110       0       0       1       0                               0D     10
     100       6       0       0       0                        00010000D     11
     100       0       0       1       0                               0D     12
     110       7       0       0       0                        01010000D     13
     110       0       0       1       0                               0D     14
     100       8       0       0       0                        00010000D     15
     100       0       0       1       0                               0D     16
     504       9       0       0       0                        00010000D     17
     504       0       0       2       1                               0D     18
     110      11       0       0       0                        01010000D     19
     110       0       0       1       0                               0D     20
     110      12       0       0       0                        01010000D     21
     110       0       0       1       0                               0D     22
     120      13       0       0       0                        01010000D     23
     120       0      -1       1       0                               0D     24
     508      14       0       0       0                        00010000D     25
     508       0       0       1       1                               0D     26
     510      15       0       0       0                        00010000D     27
     510       0      -1       1       1                               0D     28
     110      16       0       0       0                        01010000D     29
     110       0       0       1       0                               0D     30
     110      17       0       0       0                        01010000D     31
     110       0       0       1       0                               0D     32
     120      18       0       0       0                        01010000D     33
     120       0      -1       1       0                               0D     34
     508      19       0       0       0                        00010000D     35
     508       0       0       1       1                               0D     36
     510      20       0       0       0                        00010000D     37
     510       0      -1       1       1                               0D     38
     116      21       0       0       0                        00010000D     39
     116       0       0       1       0                               0D     40
     123      22       0       0       0                        00010200D     41
     123       0       0       1       0                               0D     42
     123      23       0       0       0                        00010200D     43
     123       0       0       1       0                               0D     44
     190      24       0       0       0                        00010000D     45
     190       0      -1       1       1                               0D     46
     508      25       0       0       0                        00010000D     47
     508       0       0       1       1                               0D     48
     510      26       0       0       0                        00010000D     49
     510       0      -1       1       1                               0D     50
     116      27       0       0       0                        00010000D     51
     116       0       0       1       0                               0D     52
     123      28       0       0       0                        00010200D     53
     123       0       0       1       0                               0D     54
     123      29       0       0       0                        00010200D     55
     123       0       0       1       0                               0D     56
     190      30       0       0       0                        00010000D     57
     190       0      -1       1       1                               0D     58
     508      31       0       0       0                        00010000D     59
     508       0       0       1       1                               0D     60
     510      32       0       0       0                        00010000D     61
     510       0      -1       1       1                               0D     62
     514      33       0       0       0                        00010000D     63
     514       0       0       1       1                               0D     64
     186      34       0       0       0                        00000000D     65
     186       0       0       1       0                               0D     66
314,75.2941176470588,75.2941176470588,75.2941176470588,;               1P      1
502,4,-6.25,0.,-2.,6.25,0.,0.,6.25,0.,-2.,-6.25,0.,0.;                 3P      2
100,0.,0.,0.,6.25,0.,-6.25,0.;                                         5P      3
100,-2.,0.,0.,-6.25,0.,6.25,0.;                                        7P      4
110,6.25,0.,-2.,6.25,0.,0.;                                            9P      5
100,0.,0.,0.,-6.25,0.,6.25,0.;                                        11P      6
110,-6.25,0.,-2.,-6.25,0.,0.;                                         13P      7
100,-2.,0.,0.,6.25,0.,-6.25,0.;                                       15P      8
504,6,5,3,2,3,4,7,3,1,3,3,9,3,3,3,2,11,3,4,3,2,13,3,1,3,4,15,3,       17P      9
3,3,1;                                                                17P     10
110,0.,0.,-2.,0.,0.,998.;                                             19P     11
110,6.25,0.,0.,6.25,0.,-2.;                                           21P     12
120,19,21,0.,6.28318530717959;                                        23P     13
508,4,0,17,6,1,0,0,17,5,1,0,0,17,1,0,0,0,17,3,0,0;                    25P     14
510,23,1,1,25;                                                        27P     15
110,0.,0.,-2.,0.,0.,998.;                                             29P     16
110,6.25,0.,0.,6.25,0.,-2.;                                           31P     17
120,29,31,0.,6.28318530717959;                                        33P     18
508,4,0,17,5,0,0,0,17,2,1,0,0,17,3,1,0,0,17,4,0,0;                    35P     19
510,33,1,1,35;                                                        37P     20
116,0.,0.,-2.,;                                                       39P     21
123,0.,0.,1.;                                                         41P     22
123,0.707106781,-0.707106781,0.;                                      43P     23
190,39,41,43;                                                         45P     24
508,2,0,17,6,0,0,0,17,2,0,0;                                          47P     25
510,45,1,1,47;                                                        49P     26
116,0.,0.,0.,;                                                        51P     27
123,0.,0.,1.;                                                         53P     28
123,0.707106781,-0.707106781,0.;                                      55P     29
190,51,53,55;                                                         57P     30
508,2,0,17,1,1,0,0,17,4,1,0;                                          59P     31
510,57,1,1,59;                                                        61P     32
514,4,27,1,37,1,49,1,61,1;                                            63P     33
186,63,1,0;                                                           65P     34
S      1G      4D     66P     34                                        T      1
