ISO-10303-21;
HEADER;
FILE_DESCRIPTION (( 'STEP AP214' ),
    '1' );
FILE_NAME ('5446-E0W.STEP',
    '2009-12-23T16:30:48',
    ( 'Admin' ),
    ( 'Thorlabs, Inc.' ),
    'SwSTEP 2.0',
    'SolidWorks 2009',
    '' );
FILE_SCHEMA (( 'AUTOMOTIVE_DESIGN' ));
ENDSEC;

DATA;
#1 =( NAMED_UNIT ( * ) PLANE_ANGLE_UNIT ( ) SI_UNIT ( $, .RADIAN. ) );
#2 = ORIENTED_EDGE ( 'NONE', *, *, #3, .T. ) ;
#3 = EDGE_CURVE ( 'NONE', #55, #56, #61, .T. ) ;
#4 = EDGE_LOOP ( 'NONE', ( #27, #41, #45, #38, #28 ) ) ;
#5 = ADVANCED_FACE ( 'NONE', ( #62 ), #125, .F. ) ;
#6 = ORIENTED_EDGE ( 'NONE', *, *, #57, .T. ) ;
#7 =( CONVERSION_BASED_UNIT ( 'INCH', #8 ) LENGTH_UNIT ( ) NAMED_UNIT ( #9 ) );
#8 = LENGTH_MEASURE_WITH_UNIT ( LENGTH_MEASURE( 0.02539999999999999900 ), #10 );
#9 = DIMENSIONAL_EXPONENTS ( 1.000000000000000000, 0.0000000000000000000, 0.0000000000000000000, 0.0000000000000000000, 0.0000000000000000000, 0.0000000000000000000, 0.0000000000000000000 ) ;
#10 =( LENGTH_UNIT ( ) NAMED_UNIT ( * ) SI_UNIT ( $, .METRE. ) );
#11 = MECHANICAL_DESIGN_GEOMETRIC_PRESENTATION_REPRESENTATION (  '', ( #13 ), #156 ) ;
#12 = PRESENTATION_LAYER_ASSIGNMENT (  '', '', ( #13 ) ) ;
#13 = STYLED_ITEM ( 'NONE', ( #14 ), #5 ) ;
#14 = PRESENTATION_STYLE_ASSIGNMENT (( #15 ) ) ;
#15 = SURFACE_STYLE_USAGE ( .BOTH. , #16 ) ;
#16 = SURFACE_SIDE_STYLE ('',( #17 ) ) ;
#17 = SURFACE_STYLE_FILL_AREA ( #48 ) ;
#18 = EDGE_CURVE ( 'NONE', #33, #55, #150, .T. ) ;
#19 = EDGE_CURVE ( 'NONE', #40, #31, #147, .T. ) ;
#20 = ORIENTED_EDGE ( 'NONE', *, *, #63, .F. ) ;
#21 = ADVANCED_FACE ( 'NONE', ( #151 ), #152, .F. ) ;
#22 = MANIFOLD_SOLID_BREP ( 'NONE', #52 ) ;
#23 = ADVANCED_FACE ( 'NONE', ( #107 ), #165, .T. ) ;
#24 = ORIENTED_EDGE ( 'NONE', *, *, #19, .T. ) ;
#25 = EDGE_LOOP ( 'NONE', ( #66, #24, #44, #64, #20 ) ) ;
#26 = ORIENTED_EDGE ( 'NONE', *, *, #19, .F. ) ;
#27 = ORIENTED_EDGE ( 'NONE', *, *, #37, .T. ) ;
#28 = ORIENTED_EDGE ( 'NONE', *, *, #29, .F. ) ;
#29 = EDGE_CURVE ( 'NONE', #31, #56, #184, .T. ) ;
#30 = ADVANCED_FACE ( 'NONE', ( #180 ), #227, .F. ) ;
#31 = VERTEX_POINT ( 'NONE', #215 ) ;
#32 = ADVANCED_FACE ( 'NONE', ( #211 ), #200, .T. ) ;
#33 = VERTEX_POINT ( 'NONE', #201 ) ;
#34 = EDGE_CURVE ( 'NONE', #56, #46, #195, .T. ) ;
#35 = EDGE_CURVE ( 'NONE', #40, #42, #190, .T. ) ;
#36 = EDGE_LOOP ( 'NONE', ( #47, #54, #2, #70 ) ) ;
#37 = EDGE_CURVE ( 'NONE', #31, #40, #243, .T. ) ;
#38 = ORIENTED_EDGE ( 'NONE', *, *, #34, .F. ) ;
#39 = EDGE_CURVE ( 'NONE', #46, #42, #238, .T. ) ;
#40 = VERTEX_POINT ( 'NONE', #137 ) ;
#41 = ORIENTED_EDGE ( 'NONE', *, *, #35, .T. ) ;
#42 = VERTEX_POINT ( 'NONE', #136 ) ;
#43 = EDGE_LOOP ( 'NONE', ( #65, #26 ) ) ;
#44 = ORIENTED_EDGE ( 'NONE', *, *, #29, .T. ) ;
#45 = ORIENTED_EDGE ( 'NONE', *, *, #39, .F. ) ;
#46 = VERTEX_POINT ( 'NONE', #135 ) ;
#47 = ORIENTED_EDGE ( 'NONE', *, *, #57, .F. ) ;
#48 = FILL_AREA_STYLE ('',( #49 ) ) ;
#49 = FILL_AREA_STYLE_COLOUR ( '', #50 ) ;
#50 = COLOUR_RGB ( '',1.000000000000000000, 1.000000000000000000, 1.000000000000000000 ) ;
#51 = DIRECTION ( 'NONE',  ( 1.000000000000000000, 0.0000000000000000000, 0.0000000000000000000 ) ) ;
#52 = CLOSED_SHELL ( 'NONE', ( #32, #5, #30, #21, #23 ) ) ;
#53 = ORIENTED_EDGE ( 'NONE', *, *, #63, .T. ) ;
#54 = ORIENTED_EDGE ( 'NONE', *, *, #18, .T. ) ;
#55 = VERTEX_POINT ( 'NONE', #134 ) ;
#56 = VERTEX_POINT ( 'NONE', #133 ) ;
#57 = EDGE_CURVE ( 'NONE', #33, #46, #131, .T. ) ;
#58 = DIRECTION ( 'NONE',  ( -0.0000000000000000000, -0.0000000000000000000, 1.000000000000000000 ) ) ;
#59 = CARTESIAN_POINT ( 'NONE',  ( 0.0000000000000000000, 0.0000000000000000000, 0.07843962404109772200 ) ) ;
#60 = AXIS2_PLACEMENT_3D ( 'NONE', #59, #58, #51 ) ;
#61 = CIRCLE ( 'NONE', #60, 0.1771653543307086800 ) ;
#62 = FACE_OUTER_BOUND ( 'NONE', #36, .T. ) ;
#63 = EDGE_CURVE ( 'NONE', #42, #55, #120, .T. ) ;
#64 = ORIENTED_EDGE ( 'NONE', *, *, #3, .F. ) ;
#65 = ORIENTED_EDGE ( 'NONE', *, *, #37, .F. ) ;
#66 = ORIENTED_EDGE ( 'NONE', *, *, #35, .F. ) ;
#67 = EDGE_LOOP ( 'NONE', ( #68, #6, #71, #53 ) ) ;
#68 = ORIENTED_EDGE ( 'NONE', *, *, #18, .F. ) ;
#69 = ADVANCED_BREP_SHAPE_REPRESENTATION ( '5446-E0W', ( #22, #272 ), #246 ) ;
#70 = ORIENTED_EDGE ( 'NONE', *, *, #34, .T. ) ;
#71 = ORIENTED_EDGE ( 'NONE', *, *, #39, .T. ) ;
#72 = UNCERTAINTY_MEASURE_WITH_UNIT (LENGTH_MEASURE( 1.000000000000000100E-005 ), #94, 'distance_accuracy_value', 'NONE');
#73 =( NAMED_UNIT ( * ) SI_UNIT ( $, .STERADIAN. ) SOLID_ANGLE_UNIT ( ) );
#74 =( NAMED_UNIT ( * ) PLANE_ANGLE_UNIT ( ) SI_UNIT ( $, .RADIAN. ) );
#75 =( LENGTH_UNIT ( ) NAMED_UNIT ( * ) SI_UNIT ( $, .METRE. ) );
#76 = MECHANICAL_DESIGN_GEOMETRIC_PRESENTATION_REPRESENTATION (  '', ( #78 ), #166 ) ;
#77 = PRESENTATION_LAYER_ASSIGNMENT (  '', '', ( #78 ) ) ;
#78 = STYLED_ITEM ( 'NONE', ( #79 ), #23 ) ;
#79 = PRESENTATION_STYLE_ASSIGNMENT (( #80 ) ) ;
#80 = SURFACE_STYLE_USAGE ( .BOTH. , #81 ) ;
#81 = SURFACE_SIDE_STYLE ('',( #103 ) ) ;
#82 = SURFACE_SIDE_STYLE ('',( #83 ) ) ;
#83 = SURFACE_STYLE_FILL_AREA ( #84 ) ;
#84 = FILL_AREA_STYLE ('',( #87 ) ) ;
#85 = DIRECTION ( 'NONE',  ( 1.000000000000000000, 0.0000000000000000000, 0.0000000000000000000 ) ) ;
#86 = DIRECTION ( 'NONE',  ( 0.0000000000000000000, -0.0000000000000000000, 1.000000000000000000 ) ) ;
#87 = FILL_AREA_STYLE_COLOUR ( '', #88 ) ;
#88 = COLOUR_RGB ( '',0.7529411764705882200, 0.7529411764705882200, 0.7529411764705882200 ) ;
#89 = MECHANICAL_DESIGN_GEOMETRIC_PRESENTATION_REPRESENTATION (  '', ( #91 ), #108 ) ;
#90 = PRESENTATION_LAYER_ASSIGNMENT (  '', '', ( #91 ) ) ;
#91 = STYLED_ITEM ( 'NONE', ( #92 ), #22 ) ;
#92 = PRESENTATION_STYLE_ASSIGNMENT (( #93 ) ) ;
#93 = SURFACE_STYLE_USAGE ( .BOTH. , #82 ) ;
#94 =( CONVERSION_BASED_UNIT ( 'INCH', #95 ) LENGTH_UNIT ( ) NAMED_UNIT ( #96 ) );
#95 = LENGTH_MEASURE_WITH_UNIT ( LENGTH_MEASURE( 0.02539999999999999900 ), #75 );
#96 = DIMENSIONAL_EXPONENTS ( 1.000000000000000000, 0.0000000000000000000, 0.0000000000000000000, 0.0000000000000000000, 0.0000000000000000000, 0.0000000000000000000, 0.0000000000000000000 ) ;
#97 =( CONVERSION_BASED_UNIT ( 'INCH', #142 ) LENGTH_UNIT ( ) NAMED_UNIT ( #143 ) );
#98 = UNCERTAINTY_MEASURE_WITH_UNIT (LENGTH_MEASURE( 1.000000000000000100E-005 ), #101, 'distance_accuracy_value', 'NONE');
#99 =( NAMED_UNIT ( * ) SI_UNIT ( $, .STERADIAN. ) SOLID_ANGLE_UNIT ( ) );
#100 =( NAMED_UNIT ( * ) PLANE_ANGLE_UNIT ( ) SI_UNIT ( $, .RADIAN. ) );
#101 =( CONVERSION_BASED_UNIT ( 'INCH', #102 ) LENGTH_UNIT ( ) NAMED_UNIT ( #148 ) );
#102 = LENGTH_MEASURE_WITH_UNIT ( LENGTH_MEASURE( 0.02539999999999999900 ), #149 );
#103 = SURFACE_STYLE_FILL_AREA ( #104 ) ;
#104 = FILL_AREA_STYLE ('',( #105 ) ) ;
#105 = FILL_AREA_STYLE_COLOUR ( '', #106 ) ;
#106 = COLOUR_RGB ( '',1.000000000000000000, 1.000000000000000000, 1.000000000000000000 ) ;
#107 = FACE_OUTER_BOUND ( 'NONE', #25, .T. ) ;
#108 =( GEOMETRIC_REPRESENTATION_CONTEXT ( 3 ) GLOBAL_UNCERTAINTY_ASSIGNED_CONTEXT ( ( #98 ) ) GLOBAL_UNIT_ASSIGNED_CONTEXT ( ( #101, #100, #99 ) ) REPRESENTATION_CONTEXT ( 'NONE', 'WORKASPACE' ) );
#109 = PRESENTATION_STYLE_ASSIGNMENT (( #110 ) ) ;
#110 = SURFACE_STYLE_USAGE ( .BOTH. , #111 ) ;
#111 = SURFACE_SIDE_STYLE ('',( #112 ) ) ;
#112 = SURFACE_STYLE_FILL_AREA ( #113 ) ;
#113 = FILL_AREA_STYLE ('',( #159 ) ) ;
#114 =( LENGTH_UNIT ( ) NAMED_UNIT ( * ) SI_UNIT ( $, .METRE. ) );
#115 = DIMENSIONAL_EXPONENTS ( 1.000000000000000000, 0.0000000000000000000, 0.0000000000000000000, 0.0000000000000000000, 0.0000000000000000000, 0.0000000000000000000, 0.0000000000000000000 ) ;
#116 =( LENGTH_UNIT ( ) NAMED_UNIT ( * ) SI_UNIT ( $, .METRE. ) );
#117 = DIRECTION ( 'NONE',  ( 1.000000000000000000, 0.0000000000000000000, 0.0000000000000000000 ) ) ;
#118 = DIRECTION ( 'NONE',  ( -0.0000000000000000000, -0.0000000000000000000, 1.000000000000000000 ) ) ;
#119 = AXIS2_PLACEMENT_3D ( 'NONE', #132, #118, #117 ) ;
#120 = CIRCLE ( 'NONE', #119, 0.1771653543307086800 ) ;
#121 = DIRECTION ( 'NONE',  ( 0.0000000000000000000, 0.0000000000000000000, -1.000000000000000000 ) ) ;
#122 = DIRECTION ( 'NONE',  ( 1.000000000000000000, 0.0000000000000000000, 0.0000000000000000000 ) ) ;
#123 = CARTESIAN_POINT ( 'NONE',  ( 0.0000000000000000000, 0.0000000000000000000, 0.6007874015748031500 ) ) ;
#124 = AXIS2_PLACEMENT_3D ( 'NONE', #163, #162, #155 ) ;
#125 = SPHERICAL_SURFACE ( 'NONE', #124, 0.5515748031496062700 ) ;
#126 = UNCERTAINTY_MEASURE_WITH_UNIT (LENGTH_MEASURE( 1.000000000000000100E-005 ), #7, 'distance_accuracy_value', 'NONE');
#127 = CARTESIAN_POINT ( 'NONE',  ( 0.0000000000000000000, 0.0000000000000000000, 0.6007874015748031500 ) ) ;
#128 = AXIS2_PLACEMENT_3D ( 'NONE', #127, #158, #157 ) ;
#129 =( NAMED_UNIT ( * ) PLANE_ANGLE_UNIT ( ) SI_UNIT ( $, .RADIAN. ) );
#130 = AXIS2_PLACEMENT_3D ( 'NONE', #123, #122, #121 ) ;
#131 = CIRCLE ( 'NONE', #130, 0.5515748031496062700 ) ;
#132 = CARTESIAN_POINT ( 'NONE',  ( 0.0000000000000000000, 0.0000000000000000000, 0.07843962404109772200 ) ) ;
#133 = CARTESIAN_POINT ( 'NONE',  ( 0.1771653543307086800, 0.0000000000000000000, 0.07843962404109772200 ) ) ;
#134 = CARTESIAN_POINT ( 'NONE',  ( -2.169578185905786800E-017, -0.1771653543307086800, 0.07843962404109772200 ) ) ;
#135 = CARTESIAN_POINT ( 'NONE',  ( 0.0000000000000000000, 0.1771653543307086800, 0.07843962404109772200 ) ) ;
#136 = CARTESIAN_POINT ( 'NONE',  ( -0.1771653543307086800, 2.169578185905786800E-017, 0.07843962404109772200 ) ) ;
#137 = CARTESIAN_POINT ( 'NONE',  ( -0.1771653543307086500, 2.169578185905786500E-017, -0.04921259842519682500 ) ) ;
#138 = DIRECTION ( 'NONE',  ( 1.000000000000000000, 0.0000000000000000000, 0.0000000000000000000 ) ) ;
#139 = MECHANICAL_DESIGN_GEOMETRIC_PRESENTATION_REPRESENTATION (  '', ( #141 ), #234 ) ;
#140 = PRESENTATION_LAYER_ASSIGNMENT (  '', '', ( #141 ) ) ;
#141 = STYLED_ITEM ( 'NONE', ( #109 ), #21 ) ;
#142 = LENGTH_MEASURE_WITH_UNIT ( LENGTH_MEASURE( 0.02539999999999999900 ), #114 );
#143 = DIMENSIONAL_EXPONENTS ( 1.000000000000000000, 0.0000000000000000000, 0.0000000000000000000, 0.0000000000000000000, 0.0000000000000000000, 0.0000000000000000000, 0.0000000000000000000 ) ;
#144 = DIRECTION ( 'NONE',  ( -0.0000000000000000000, -0.0000000000000000000, 1.000000000000000000 ) ) ;
#145 = CARTESIAN_POINT ( 'NONE',  ( 0.0000000000000000000, 0.0000000000000000000, -0.04921259842519682500 ) ) ;
#146 = AXIS2_PLACEMENT_3D ( 'NONE', #145, #144, #161 ) ;
#147 = CIRCLE ( 'NONE', #146, 0.1771653543307086500 ) ;
#148 = DIMENSIONAL_EXPONENTS ( 1.000000000000000000, 0.0000000000000000000, 0.0000000000000000000, 0.0000000000000000000, 0.0000000000000000000, 0.0000000000000000000, 0.0000000000000000000 ) ;
#149 =( LENGTH_UNIT ( ) NAMED_UNIT ( * ) SI_UNIT ( $, .METRE. ) );
#150 = CIRCLE ( 'NONE', #128, 0.5515748031496062700 ) ;
#151 = FACE_OUTER_BOUND ( 'NONE', #43, .T. ) ;
#152 = PLANE ( 'NONE',  #154 ) ;
#153 = CARTESIAN_POINT ( 'NONE',  ( 0.0000000000000000000, 1.808041534174241900E-017, -0.04921259842519685300 ) ) ;
#154 = AXIS2_PLACEMENT_3D ( 'NONE', #153, #86, #85 ) ;
#155 = DIRECTION ( 'NONE',  ( 0.0000000000000000000, 1.000000000000000000, 0.0000000000000000000 ) ) ;
#156 =( GEOMETRIC_REPRESENTATION_CONTEXT ( 3 ) GLOBAL_UNCERTAINTY_ASSIGNED_CONTEXT ( ( #126 ) ) GLOBAL_UNIT_ASSIGNED_CONTEXT ( ( #7, #1, #216 ) ) REPRESENTATION_CONTEXT ( 'NONE', 'WORKASPACE' ) );
#157 = DIRECTION ( 'NONE',  ( -1.224606353822377300E-016, -1.000000000000000000, 0.0000000000000000000 ) ) ;
#158 = DIRECTION ( 'NONE',  ( -1.000000000000000000, 1.224606353822377300E-016, 0.0000000000000000000 ) ) ;
#159 = FILL_AREA_STYLE_COLOUR ( '', #160 ) ;
#160 = COLOUR_RGB ( '',1.000000000000000000, 1.000000000000000000, 1.000000000000000000 ) ;
#161 = DIRECTION ( 'NONE',  ( 1.000000000000000000, 0.0000000000000000000, 0.0000000000000000000 ) ) ;
#162 = DIRECTION ( 'NONE',  ( -1.000000000000000000, 0.0000000000000000000, 0.0000000000000000000 ) ) ;
#163 = CARTESIAN_POINT ( 'NONE',  ( 0.0000000000000000000, 0.0000000000000000000, 0.6007874015748031500 ) ) ;
#164 = AXIS2_PLACEMENT_3D ( 'NONE', #188, #187, #186 ) ;
#165 = CYLINDRICAL_SURFACE ( 'NONE', #164, 0.1771653543307086800 ) ;
#166 =( GEOMETRIC_REPRESENTATION_CONTEXT ( 3 ) GLOBAL_UNCERTAINTY_ASSIGNED_CONTEXT ( ( #72 ) ) GLOBAL_UNIT_ASSIGNED_CONTEXT ( ( #94, #74, #73 ) ) REPRESENTATION_CONTEXT ( 'NONE', 'WORKASPACE' ) );
#167 =( CONVERSION_BASED_UNIT ( 'INCH', #168 ) LENGTH_UNIT ( ) NAMED_UNIT ( #169 ) );
#168 = LENGTH_MEASURE_WITH_UNIT ( LENGTH_MEASURE( 0.02539999999999999900 ), #170 );
#169 = DIMENSIONAL_EXPONENTS ( 1.000000000000000000, 0.0000000000000000000, 0.0000000000000000000, 0.0000000000000000000, 0.0000000000000000000, 0.0000000000000000000, 0.0000000000000000000 ) ;
#170 =( LENGTH_UNIT ( ) NAMED_UNIT ( * ) SI_UNIT ( $, .METRE. ) );
#171 = MECHANICAL_DESIGN_GEOMETRIC_PRESENTATION_REPRESENTATION (  '', ( #173 ), #228 ) ;
#172 = PRESENTATION_LAYER_ASSIGNMENT (  '', '', ( #173 ) ) ;
#173 = STYLED_ITEM ( 'NONE', ( #174 ), #30 ) ;
#174 = PRESENTATION_STYLE_ASSIGNMENT (( #175 ) ) ;
#175 = SURFACE_STYLE_USAGE ( .BOTH. , #176 ) ;
#176 = SURFACE_SIDE_STYLE ('',( #177 ) ) ;
#177 = SURFACE_STYLE_FILL_AREA ( #178 ) ;
#178 = FILL_AREA_STYLE ('',( #185 ) ) ;
#179 = COLOUR_RGB ( '',1.000000000000000000, 1.000000000000000000, 1.000000000000000000 ) ;
#180 = FACE_OUTER_BOUND ( 'NONE', #67, .T. ) ;
#181 = DIRECTION ( 'NONE',  ( -0.0000000000000000000, -0.0000000000000000000, 1.000000000000000000 ) ) ;
#182 = VECTOR ( 'NONE', #181, 39.37007874015748100 ) ;
#183 = CARTESIAN_POINT ( 'NONE',  ( 0.1771653543307086800, 0.0000000000000000000, 0.3550060342688710600 ) ) ;
#184 = LINE ( 'NONE', #183, #182 ) ;
#185 = FILL_AREA_STYLE_COLOUR ( '', #179 ) ;
#186 = DIRECTION ( 'NONE',  ( 1.000000000000000000, 0.0000000000000000000, 0.0000000000000000000 ) ) ;
#187 = DIRECTION ( 'NONE',  ( -0.0000000000000000000, -0.0000000000000000000, 1.000000000000000000 ) ) ;
#188 = CARTESIAN_POINT ( 'NONE',  ( 0.0000000000000000000, 0.0000000000000000000, 0.3550060342688710600 ) ) ;
#189 = CARTESIAN_POINT ( 'NONE',  ( -0.1771653543307086800, 2.169578185905786800E-017, 0.3550060342688710600 ) ) ;
#190 = LINE ( 'NONE', #189, #245 ) ;
#191 = DIRECTION ( 'NONE',  ( 1.000000000000000000, 0.0000000000000000000, 0.0000000000000000000 ) ) ;
#192 = DIRECTION ( 'NONE',  ( -0.0000000000000000000, -0.0000000000000000000, 1.000000000000000000 ) ) ;
#193 = CARTESIAN_POINT ( 'NONE',  ( 0.0000000000000000000, 0.0000000000000000000, 0.07843962404109772200 ) ) ;
#194 = AXIS2_PLACEMENT_3D ( 'NONE', #193, #192, #191 ) ;
#195 = CIRCLE ( 'NONE', #194, 0.1771653543307086800 ) ;
#196 = DIRECTION ( 'NONE',  ( 1.000000000000000000, 0.0000000000000000000, 0.0000000000000000000 ) ) ;
#197 = DIRECTION ( 'NONE',  ( -0.0000000000000000000, -0.0000000000000000000, 1.000000000000000000 ) ) ;
#198 = CARTESIAN_POINT ( 'NONE',  ( 0.0000000000000000000, 0.0000000000000000000, 0.3550060342688710600 ) ) ;
#199 = AXIS2_PLACEMENT_3D ( 'NONE', #198, #197, #196 ) ;
#200 = CYLINDRICAL_SURFACE ( 'NONE', #199, 0.1771653543307086800 ) ;
#201 = CARTESIAN_POINT ( 'NONE',  ( 0.0000000000000000000, 3.377310042726673900E-017, 0.04921259842519682500 ) ) ;
#202 = PRESENTATION_LAYER_ASSIGNMENT (  '', '', ( #203 ) ) ;
#203 = STYLED_ITEM ( 'NONE', ( #204 ), #32 ) ;
#204 = PRESENTATION_STYLE_ASSIGNMENT (( #205 ) ) ;
#205 = SURFACE_STYLE_USAGE ( .BOTH. , #206 ) ;
#206 = SURFACE_SIDE_STYLE ('',( #207 ) ) ;
#207 = SURFACE_STYLE_FILL_AREA ( #208 ) ;
#208 = FILL_AREA_STYLE ('',( #209 ) ) ;
#209 = FILL_AREA_STYLE_COLOUR ( '', #210 ) ;
#210 = COLOUR_RGB ( '',1.000000000000000000, 1.000000000000000000, 1.000000000000000000 ) ;
#211 = FACE_OUTER_BOUND ( 'NONE', #4, .T. ) ;
#212 = DIRECTION ( 'NONE',  ( 0.0000000000000000000, 1.000000000000000000, 0.0000000000000000000 ) ) ;
#213 = DIRECTION ( 'NONE',  ( -1.000000000000000000, 0.0000000000000000000, 0.0000000000000000000 ) ) ;
#214 = AXIS2_PLACEMENT_3D ( 'NONE', #226, #213, #212 ) ;
#215 = CARTESIAN_POINT ( 'NONE',  ( 0.1771653543307086500, 0.0000000000000000000, -0.04921259842519682500 ) ) ;
#216 =( NAMED_UNIT ( * ) SI_UNIT ( $, .STERADIAN. ) SOLID_ANGLE_UNIT ( ) );
#217 =( GEOMETRIC_REPRESENTATION_CONTEXT ( 3 ) GLOBAL_UNCERTAINTY_ASSIGNED_CONTEXT ( ( #218 ) ) GLOBAL_UNIT_ASSIGNED_CONTEXT ( ( #221, #220, #219 ) ) REPRESENTATION_CONTEXT ( 'NONE', 'WORKASPACE' ) );
#218 = UNCERTAINTY_MEASURE_WITH_UNIT (LENGTH_MEASURE( 1.000000000000000100E-005 ), #221, 'distance_accuracy_value', 'NONE');
#219 =( NAMED_UNIT ( * ) SI_UNIT ( $, .STERADIAN. ) SOLID_ANGLE_UNIT ( ) );
#220 =( NAMED_UNIT ( * ) PLANE_ANGLE_UNIT ( ) SI_UNIT ( $, .RADIAN. ) );
#221 =( CONVERSION_BASED_UNIT ( 'INCH', #222 ) LENGTH_UNIT ( ) NAMED_UNIT ( #223 ) );
#222 = LENGTH_MEASURE_WITH_UNIT ( LENGTH_MEASURE( 0.02539999999999999900 ), #224 );
#223 = DIMENSIONAL_EXPONENTS ( 1.000000000000000000, 0.0000000000000000000, 0.0000000000000000000, 0.0000000000000000000, 0.0000000000000000000, 0.0000000000000000000, 0.0000000000000000000 ) ;
#224 =( LENGTH_UNIT ( ) NAMED_UNIT ( * ) SI_UNIT ( $, .METRE. ) );
#225 = MECHANICAL_DESIGN_GEOMETRIC_PRESENTATION_REPRESENTATION (  '', ( #203 ), #217 ) ;
#226 = CARTESIAN_POINT ( 'NONE',  ( 0.0000000000000000000, 0.0000000000000000000, 0.6007874015748031500 ) ) ;
#227 = SPHERICAL_SURFACE ( 'NONE', #214, 0.5515748031496062700 ) ;
#228 =( GEOMETRIC_REPRESENTATION_CONTEXT ( 3 ) GLOBAL_UNCERTAINTY_ASSIGNED_CONTEXT ( ( #229 ) ) GLOBAL_UNIT_ASSIGNED_CONTEXT ( ( #167, #231, #230 ) ) REPRESENTATION_CONTEXT ( 'NONE', 'WORKASPACE' ) );
#229 = UNCERTAINTY_MEASURE_WITH_UNIT (LENGTH_MEASURE( 1.000000000000000100E-005 ), #167, 'distance_accuracy_value', 'NONE');
#230 =( NAMED_UNIT ( * ) SI_UNIT ( $, .STERADIAN. ) SOLID_ANGLE_UNIT ( ) );
#231 =( NAMED_UNIT ( * ) PLANE_ANGLE_UNIT ( ) SI_UNIT ( $, .RADIAN. ) );
#232 = UNCERTAINTY_MEASURE_WITH_UNIT (LENGTH_MEASURE( 1.000000000000000100E-005 ), #97, 'distance_accuracy_value', 'NONE');
#233 =( NAMED_UNIT ( * ) SI_UNIT ( $, .STERADIAN. ) SOLID_ANGLE_UNIT ( ) );
#234 =( GEOMETRIC_REPRESENTATION_CONTEXT ( 3 ) GLOBAL_UNCERTAINTY_ASSIGNED_CONTEXT ( ( #232 ) ) GLOBAL_UNIT_ASSIGNED_CONTEXT ( ( #97, #129, #233 ) ) REPRESENTATION_CONTEXT ( 'NONE', 'WORKASPACE' ) );
#235 = DIRECTION ( 'NONE',  ( -0.0000000000000000000, -0.0000000000000000000, 1.000000000000000000 ) ) ;
#236 = CARTESIAN_POINT ( 'NONE',  ( 0.0000000000000000000, 0.0000000000000000000, 0.07843962404109772200 ) ) ;
#237 = AXIS2_PLACEMENT_3D ( 'NONE', #236, #235, #138 ) ;
#238 = CIRCLE ( 'NONE', #237, 0.1771653543307086800 ) ;
#239 = DIRECTION ( 'NONE',  ( 1.000000000000000000, 0.0000000000000000000, 0.0000000000000000000 ) ) ;
#240 = DIRECTION ( 'NONE',  ( -0.0000000000000000000, -0.0000000000000000000, 1.000000000000000000 ) ) ;
#241 = CARTESIAN_POINT ( 'NONE',  ( 0.0000000000000000000, 0.0000000000000000000, -0.04921259842519682500 ) ) ;
#242 = AXIS2_PLACEMENT_3D ( 'NONE', #241, #240, #239 ) ;
#243 = CIRCLE ( 'NONE', #242, 0.1771653543307086500 ) ;
#244 = DIRECTION ( 'NONE',  ( -0.0000000000000000000, -0.0000000000000000000, 1.000000000000000000 ) ) ;
#245 = VECTOR ( 'NONE', #244, 39.37007874015748100 ) ;
#246 =( GEOMETRIC_REPRESENTATION_CONTEXT ( 3 ) GLOBAL_UNCERTAINTY_ASSIGNED_CONTEXT ( ( #247 ) ) GLOBAL_UNIT_ASSIGNED_CONTEXT ( ( #250, #249, #248 ) ) REPRESENTATION_CONTEXT ( 'NONE', 'WORKASPACE' ) );
#247 = UNCERTAINTY_MEASURE_WITH_UNIT (LENGTH_MEASURE( 1.000000000000000100E-005 ), #250, 'distance_accuracy_value', 'NONE');
#248 =( NAMED_UNIT ( * ) SI_UNIT ( $, .STERADIAN. ) SOLID_ANGLE_UNIT ( ) );
#249 =( NAMED_UNIT ( * ) PLANE_ANGLE_UNIT ( ) SI_UNIT ( $, .RADIAN. ) );
#250 =( CONVERSION_BASED_UNIT ( 'INCH', #251 ) LENGTH_UNIT ( ) NAMED_UNIT ( #115 ) );
#251 = LENGTH_MEASURE_WITH_UNIT ( LENGTH_MEASURE( 0.02539999999999999900 ), #116 );
#252 = STYLED_ITEM ( 'NONE', ( #264 ), #69 ) ;
#253 = UNCERTAINTY_MEASURE_WITH_UNIT (LENGTH_MEASURE( 1.000000000000000100E-005 ), #263, 'distance_accuracy_value', 'NONE');
#254 =( LENGTH_UNIT ( ) NAMED_UNIT ( * ) SI_UNIT ( $, .METRE. ) );
#255 = SHAPE_DEFINITION_REPRESENTATION ( #268, #69 ) ;
#256 = DIRECTION ( 'NONE',  ( 0.0000000000000000000, 0.0000000000000000000, 1.000000000000000000 ) ) ;
#257 = FILL_AREA_STYLE_COLOUR ( '', #260 ) ;
#258 = SURFACE_STYLE_FILL_AREA ( #281 ) ;
#259 =( NAMED_UNIT ( * ) PLANE_ANGLE_UNIT ( ) SI_UNIT ( $, .RADIAN. ) );
#260 = COLOUR_RGB ( '',0.7529411764705882200, 0.7529411764705882200, 0.7529411764705882200 ) ;
#261 = LENGTH_MEASURE_WITH_UNIT ( LENGTH_MEASURE( 0.02539999999999999900 ), #254 );
#262 = APPLICATION_CONTEXT ( 'automotive_design' ) ;
#263 =( CONVERSION_BASED_UNIT ( 'INCH', #261 ) LENGTH_UNIT ( ) NAMED_UNIT ( #274 ) );
#264 = PRESENTATION_STYLE_ASSIGNMENT (( #265 ) ) ;
#265 = SURFACE_STYLE_USAGE ( .BOTH. , #282 ) ;
#266 = PRODUCT ( '5446-E0W', '5446-E0W', '', ( #267 ) ) ;
#267 = PRODUCT_CONTEXT ( 'NONE', #262, 'mechanical' ) ;
#268 = PRODUCT_DEFINITION_SHAPE ( 'NONE', 'NONE',  #271 ) ;
#269 = PRODUCT_RELATED_PRODUCT_CATEGORY ( 'part', '', ( #266 ) ) ;
#270 = PRODUCT_DEFINITION_FORMATION_WITH_SPECIFIED_SOURCE ( 'ANY', '', #266, .NOT_KNOWN. ) ;
#271 = PRODUCT_DEFINITION ( 'UNKNOWN', '', #270, #283 ) ;
#272 = AXIS2_PLACEMENT_3D ( 'NONE', #275, #256, #280 ) ;
#273 = MECHANICAL_DESIGN_GEOMETRIC_PRESENTATION_REPRESENTATION (  '', ( #252 ), #276 ) ;
#274 = DIMENSIONAL_EXPONENTS ( 1.000000000000000000, 0.0000000000000000000, 0.0000000000000000000, 0.0000000000000000000, 0.0000000000000000000, 0.0000000000000000000, 0.0000000000000000000 ) ;
#275 = CARTESIAN_POINT ( 'NONE',  ( 0.0000000000000000000, 0.0000000000000000000, 0.0000000000000000000 ) ) ;
#276 =( GEOMETRIC_REPRESENTATION_CONTEXT ( 3 ) GLOBAL_UNCERTAINTY_ASSIGNED_CONTEXT ( ( #253 ) ) GLOBAL_UNIT_ASSIGNED_CONTEXT ( ( #263, #259, #278 ) ) REPRESENTATION_CONTEXT ( 'NONE', 'WORKASPACE' ) );
#277 = APPLICATION_PROTOCOL_DEFINITION ( 'draft international standard', 'automotive_design', 1998, #262 ) ;
#278 =( NAMED_UNIT ( * ) SI_UNIT ( $, .STERADIAN. ) SOLID_ANGLE_UNIT ( ) );
#279 = PRESENTATION_LAYER_ASSIGNMENT (  '', '', ( #252 ) ) ;
#280 = DIRECTION ( 'NONE',  ( 1.000000000000000000, 0.0000000000000000000, 0.0000000000000000000 ) ) ;
#281 = FILL_AREA_STYLE ('',( #257 ) ) ;
#282 = SURFACE_SIDE_STYLE ('',( #258 ) ) ;
#283 = PRODUCT_DEFINITION_CONTEXT ( 'detailed design', #285, 'design' ) ;
#284 = APPLICATION_PROTOCOL_DEFINITION ( 'draft international standard', 'automotive_design', 1998, #285 ) ;
#285 = APPLICATION_CONTEXT ( 'automotive_design' ) ;
ENDSEC;
END-ISO-10303-21;
