ISO-10303-21;
HEADER;
FILE_DESCRIPTION (( 'STEP AP214' ),
    '1' );
FILE_NAME ('3267-E0W.STEP',
    '2009-03-07T16:12:07',
    ( '' ),
    ( '' ),
    'SwSTEP 2.0',
    'SolidWorks 2007',
    '' );
FILE_SCHEMA (( 'AUTOMOTIVE_DESIGN' ));
ENDSEC;

DATA;
#1 = ADVANCED_BREP_SHAPE_REPRESENTATION ( '3267-E0W', ( #110, #35 ), #3 ) ;
#2 = PRODUCT ( '3267-E0W', '3267-E0W', '', ( #31 ) ) ;
#3 =( GEOMETRIC_REPRESENTATION_CONTEXT ( 3 ) GLOBAL_UNCERTAINTY_ASSIGNED_CONTEXT ( ( #150 ) ) GLOBAL_UNIT_ASSIGNED_CONTEXT ( ( #22, #24, #23 ) ) REPRESENTATION_CONTEXT ( 'NONE', 'WORKASPACE' ) );
#4 = PRODUCT_DEFINITION_CONTEXT ( 'detailed design', #7, 'design' ) ;
#5 = PRODUCT_DEFINITION ( 'UNKNOWN', '', #12, #4 ) ;
#6 = APPLICATION_PROTOCOL_DEFINITION ( 'draft international standard', 'automotive_design', 1998, #7 ) ;
#7 = APPLICATION_CONTEXT ( 'automotive_design' ) ;
#8 = CIRCLE ( 'NONE', #18, 14.99999999999999100 ) ;
#9 = DIRECTION ( 'NONE',  ( 1.000000000000000000, 1.224606353822377300E-016, 0.0000000000000000000 ) ) ;
#10 = AXIS2_PLACEMENT_3D ( 'NONE', #13, #9, #151 ) ;
#11 = TOROIDAL_SURFACE ( 'NONE', #10, -3.825476705098420200, 61.18000000000005700 ) ;
#12 = PRODUCT_DEFINITION_FORMATION_WITH_SPECIFIED_SOURCE ( 'ANY', '', #2, .NOT_KNOWN. ) ;
#13 = CARTESIAN_POINT ( 'NONE',  ( 56.66858652991341200, 6.938893903907228400E-015, 0.0000000000000000000 ) ) ;
#14 = DIRECTION ( 'NONE',  ( -1.156482317317872000E-016, 1.000000000000000000, 0.0000000000000000000 ) ) ;
#15 = DIRECTION ( 'NONE',  ( 1.000000000000000000, 1.224606353822377300E-016, 0.0000000000000000000 ) ) ;
#16 = CARTESIAN_POINT ( 'NONE',  ( -1.543043122809796300, -1.838558971720936600E-016, 0.0000000000000000000 ) ) ;
#17 = FACE_OUTER_BOUND ( 'NONE', #94, .T. ) ;
#18 = AXIS2_PLACEMENT_3D ( 'NONE', #16, #15, #14 ) ;
#19 = PRODUCT_RELATED_PRODUCT_CATEGORY ( 'part', '', ( #2 ) ) ;
#20 = SHAPE_DEFINITION_REPRESENTATION ( #21, #1 ) ;
#21 = PRODUCT_DEFINITION_SHAPE ( 'NONE', 'NONE',  #5 ) ;
#22 =( LENGTH_UNIT ( ) NAMED_UNIT ( * ) SI_UNIT ( .MILLI., .METRE. ) );
#23 =( NAMED_UNIT ( * ) SI_UNIT ( $, .STERADIAN. ) SOLID_ANGLE_UNIT ( ) );
#24 =( NAMED_UNIT ( * ) PLANE_ANGLE_UNIT ( ) SI_UNIT ( $, .RADIAN. ) );
#25 = CYLINDRICAL_SURFACE ( 'NONE', #30, 14.99999999999999600 ) ;
#26 = FACE_OUTER_BOUND ( 'NONE', #143, .T. ) ;
#27 = DIRECTION ( 'NONE',  ( -1.224244953098215800E-016, 1.000000000000000000, 0.0000000000000000000 ) ) ;
#28 = DIRECTION ( 'NONE',  ( 1.000000000000000000, 1.224606353822377300E-016, 0.0000000000000000000 ) ) ;
#29 = CARTESIAN_POINT ( 'NONE',  ( -0.04169620754823286100, 0.0000000000000000000, 0.0000000000000000000 ) ) ;
#30 = AXIS2_PLACEMENT_3D ( 'NONE', #29, #28, #27 ) ;
#31 = PRODUCT_CONTEXT ( 'NONE', #33, 'mechanical' ) ;
#32 = APPLICATION_PROTOCOL_DEFINITION ( 'draft international standard', 'automotive_design', 1998, #33 ) ;
#33 = APPLICATION_CONTEXT ( 'automotive_design' ) ;
#34 = DIRECTION ( 'NONE',  ( 0.0000000000000000000, 0.0000000000000000000, 1.000000000000000000 ) ) ;
#35 = AXIS2_PLACEMENT_3D ( 'NONE', #36, #34, #37 ) ;
#36 = CARTESIAN_POINT ( 'NONE',  ( 0.0000000000000000000, 0.0000000000000000000, 0.0000000000000000000 ) ) ;
#37 = DIRECTION ( 'NONE',  ( 1.000000000000000000, 0.0000000000000000000, 0.0000000000000000000 ) ) ;
#38 = DIRECTION ( 'NONE',  ( -1.224244953098215500E-016, 1.000000000000000000, 0.0000000000000000000 ) ) ;
#39 = CARTESIAN_POINT ( 'NONE',  ( -0.04169620754823102200, 2.249491082733206200E-031, 0.0000000000000000000 ) ) ;
#40 = DIRECTION ( 'NONE',  ( 1.000000000000000000, 1.224606353822377300E-016, 0.0000000000000000000 ) ) ;
#41 = FACE_OUTER_BOUND ( 'NONE', #112, .T. ) ;
#42 =( GEOMETRIC_REPRESENTATION_CONTEXT ( 3 ) GLOBAL_UNCERTAINTY_ASSIGNED_CONTEXT ( ( #63 ) ) GLOBAL_UNIT_ASSIGNED_CONTEXT ( ( #56, #55, #64 ) ) REPRESENTATION_CONTEXT ( 'NONE', 'WORKASPACE' ) );
#43 = TOROIDAL_SURFACE ( 'NONE', #46, -3.825476705098420200, 61.18000000000005700 ) ;
#44 = DIRECTION ( 'NONE',  ( -1.224606353822377300E-016, 1.000000000000000000, 0.0000000000000000000 ) ) ;
#45 = DIRECTION ( 'NONE',  ( 1.000000000000000000, 1.224606353822377300E-016, 0.0000000000000000000 ) ) ;
#46 = AXIS2_PLACEMENT_3D ( 'NONE', #47, #45, #44 ) ;
#47 = CARTESIAN_POINT ( 'NONE',  ( 56.66858652991341200, 6.938893903907228400E-015, 0.0000000000000000000 ) ) ;
#48 = CARTESIAN_POINT ( 'NONE',  ( -0.04169620754822919000, -15.00000000000000000, 1.836970198721029600E-015 ) ) ;
#49 = AXIS2_PLACEMENT_3D ( 'NONE', #39, #40, #38 ) ;
#50 = CIRCLE ( 'NONE', #49, 15.00000000000000000 ) ;
#51 = FACE_OUTER_BOUND ( 'NONE', #109, .T. ) ;
#52 = SURFACE_STYLE_FILL_AREA ( #53 ) ;
#53 = FILL_AREA_STYLE ('',( #54 ) ) ;
#54 = FILL_AREA_STYLE_COLOUR ( '', #59 ) ;
#55 =( NAMED_UNIT ( * ) PLANE_ANGLE_UNIT ( ) SI_UNIT ( $, .RADIAN. ) );
#56 =( LENGTH_UNIT ( ) NAMED_UNIT ( * ) SI_UNIT ( .MILLI., .METRE. ) );
#57 = MECHANICAL_DESIGN_GEOMETRIC_PRESENTATION_REPRESENTATION (  '', ( #67 ), #42 ) ;
#58 = PRESENTATION_LAYER_ASSIGNMENT (  '', '', ( #67 ) ) ;
#59 = COLOUR_RGB ( '',0.7529411764705882200, 0.7529411764705882200, 0.7529411764705882200 ) ;
#60 = DIRECTION ( 'NONE',  ( -1.224606353822377300E-016, 1.000000000000000000, 0.0000000000000000000 ) ) ;
#61 = CARTESIAN_POINT ( 'NONE',  ( -0.04169620754823193800, 1.124745541366603100E-031, 0.0000000000000000000 ) ) ;
#62 = PLANE ( 'NONE',  #73 ) ;
#63 = UNCERTAINTY_MEASURE_WITH_UNIT (LENGTH_MEASURE( 1.000000000000000100E-005 ), #56, 'distance_accuracy_value', 'NONE');
#64 =( NAMED_UNIT ( * ) SI_UNIT ( $, .STERADIAN. ) SOLID_ANGLE_UNIT ( ) );
#65 = VECTOR ( 'NONE', #74, 1000.000000000000000 ) ;
#66 = LINE ( 'NONE', #75, #65 ) ;
#67 = STYLED_ITEM ( 'NONE', ( #68 ), #110 ) ;
#68 = PRESENTATION_STYLE_ASSIGNMENT (( #69 ) ) ;
#69 = SURFACE_STYLE_USAGE ( .BOTH. , #70 ) ;
#70 = SURFACE_SIDE_STYLE ('',( #52 ) ) ;
#71 = DIRECTION ( 'NONE',  ( 1.000000000000000000, 1.224606353822377300E-016, 0.0000000000000000000 ) ) ;
#72 = CARTESIAN_POINT ( 'NONE',  ( -0.04169620754823286100, 15.00000000000000000, 0.0000000000000000000 ) ) ;
#73 = AXIS2_PLACEMENT_3D ( 'NONE', #61, #71, #60 ) ;
#74 = DIRECTION ( 'NONE',  ( 1.000000000000000000, 1.224606353822377300E-016, 0.0000000000000000000 ) ) ;
#75 = CARTESIAN_POINT ( 'NONE',  ( -0.04169620754823470000, 14.99999999999999600, 0.0000000000000000000 ) ) ;
#76 = DIRECTION ( 'NONE',  ( -1.000000000000000000, 0.0000000000000000000, 0.0000000000000000000 ) ) ;
#77 = CARTESIAN_POINT ( 'NONE',  ( -1.543043122809797800, 14.99999999999999100, 0.0000000000000000000 ) ) ;
#78 = CARTESIAN_POINT ( 'NONE',  ( -4.391696207548232400, -5.327037639127340900E-016, 0.0000000000000000000 ) ) ;
#79 = DIRECTION ( 'NONE',  ( 0.0000000000000000000, 0.0000000000000000000, -1.000000000000000000 ) ) ;
#80 = CIRCLE ( 'NONE', #92, 61.18000000000005700 ) ;
#81 = CIRCLE ( 'NONE', #91, 61.18000000000005700 ) ;
#82 = DIRECTION ( 'NONE',  ( -1.224244953098215500E-016, 1.000000000000000000, 0.0000000000000000000 ) ) ;
#83 = DIRECTION ( 'NONE',  ( 1.000000000000000000, 1.224606353822377300E-016, 0.0000000000000000000 ) ) ;
#84 = CARTESIAN_POINT ( 'NONE',  ( -0.04169620754823102200, 2.249491082733206200E-031, 0.0000000000000000000 ) ) ;
#85 = AXIS2_PLACEMENT_3D ( 'NONE', #84, #83, #82 ) ;
#86 = CIRCLE ( 'NONE', #85, 15.00000000000000000 ) ;
#87 = CARTESIAN_POINT ( 'NONE',  ( -1.543043122809794500, -14.99999999999999100, 1.836970198721028800E-015 ) ) ;
#88 = DIRECTION ( 'NONE',  ( 0.0000000000000000000, -1.000000000000000000, 1.224646799147353000E-016 ) ) ;
#89 = DIRECTION ( 'NONE',  ( -1.499710251424085300E-032, 1.224646799147353200E-016, 1.000000000000000000 ) ) ;
#90 = CARTESIAN_POINT ( 'NONE',  ( 56.66858652991341200, 3.825476705098427300, -4.684857802111543200E-016 ) ) ;
#91 = AXIS2_PLACEMENT_3D ( 'NONE', #90, #89, #88 ) ;
#92 = AXIS2_PLACEMENT_3D ( 'NONE', #93, #79, #76 ) ;
#93 = CARTESIAN_POINT ( 'NONE',  ( 56.66858652991341200, -3.825476705098413100, 0.0000000000000000000 ) ) ;
#94 = EDGE_LOOP ( 'NONE', ( #135, #136, #137 ) ) ;
#95 = ORIENTED_EDGE ( 'NONE', *, *, #96, .F. ) ;
#96 = EDGE_CURVE ( 'NONE', #116, #119, #133, .T. ) ;
#97 = ADVANCED_FACE ( 'NONE', ( #134 ), #126, .T. ) ;
#98 = EDGE_LOOP ( 'NONE', ( #99, #100, #103, #106 ) ) ;
#99 = ORIENTED_EDGE ( 'NONE', *, *, #96, .T. ) ;
#100 = ORIENTED_EDGE ( 'NONE', *, *, #101, .T. ) ;
#101 = EDGE_CURVE ( 'NONE', #119, #102, #127, .T. ) ;
#102 = VERTEX_POINT ( 'NONE', #48 ) ;
#103 = ORIENTED_EDGE ( 'NONE', *, *, #104, .F. ) ;
#104 = EDGE_CURVE ( 'NONE', #105, #102, #50, .T. ) ;
#105 = VERTEX_POINT ( 'NONE', #72 ) ;
#106 = ORIENTED_EDGE ( 'NONE', *, *, #107, .F. ) ;
#107 = EDGE_CURVE ( 'NONE', #116, #105, #66, .T. ) ;
#108 = ADVANCED_FACE ( 'NONE', ( #51 ), #62, .T. ) ;
#109 = EDGE_LOOP ( 'NONE', ( #139, #140 ) ) ;
#110 = MANIFOLD_SOLID_BREP ( 'NONE', #138 ) ;
#111 = ADVANCED_FACE ( 'NONE', ( #41 ), #43, .T. ) ;
#112 = EDGE_LOOP ( 'NONE', ( #113, #117, #95 ) ) ;
#113 = ORIENTED_EDGE ( 'NONE', *, *, #114, .F. ) ;
#114 = EDGE_CURVE ( 'NONE', #115, #116, #80, .T. ) ;
#115 = VERTEX_POINT ( 'NONE', #78 ) ;
#116 = VERTEX_POINT ( 'NONE', #77 ) ;
#117 = ORIENTED_EDGE ( 'NONE', *, *, #118, .T. ) ;
#118 = EDGE_CURVE ( 'NONE', #115, #119, #81, .T. ) ;
#119 = VERTEX_POINT ( 'NONE', #87 ) ;
#120 = DIRECTION ( 'NONE',  ( 1.000000000000000000, 1.224606353822377300E-016, 0.0000000000000000000 ) ) ;
#121 = VECTOR ( 'NONE', #120, 1000.000000000000000 ) ;
#122 = CARTESIAN_POINT ( 'NONE',  ( -0.04169620754823102200, -14.99999999999999600, 1.836970198721029200E-015 ) ) ;
#123 = DIRECTION ( 'NONE',  ( -1.224244953098215800E-016, 1.000000000000000000, 0.0000000000000000000 ) ) ;
#124 = DIRECTION ( 'NONE',  ( 1.000000000000000000, 1.224606353822377300E-016, 0.0000000000000000000 ) ) ;
#125 = AXIS2_PLACEMENT_3D ( 'NONE', #128, #124, #123 ) ;
#126 = CYLINDRICAL_SURFACE ( 'NONE', #125, 14.99999999999999600 ) ;
#127 = LINE ( 'NONE', #122, #121 ) ;
#128 = CARTESIAN_POINT ( 'NONE',  ( -0.04169620754823286100, 0.0000000000000000000, 0.0000000000000000000 ) ) ;
#129 = DIRECTION ( 'NONE',  ( -1.156482317317872000E-016, 1.000000000000000000, 0.0000000000000000000 ) ) ;
#130 = DIRECTION ( 'NONE',  ( 1.000000000000000000, 1.224606353822377300E-016, 0.0000000000000000000 ) ) ;
#131 = CARTESIAN_POINT ( 'NONE',  ( -1.543043122809796300, -1.838558971720936600E-016, 0.0000000000000000000 ) ) ;
#132 = AXIS2_PLACEMENT_3D ( 'NONE', #131, #130, #129 ) ;
#133 = CIRCLE ( 'NONE', #132, 14.99999999999999100 ) ;
#134 = FACE_OUTER_BOUND ( 'NONE', #98, .T. ) ;
#135 = ORIENTED_EDGE ( 'NONE', *, *, #118, .F. ) ;
#136 = ORIENTED_EDGE ( 'NONE', *, *, #114, .T. ) ;
#137 = ORIENTED_EDGE ( 'NONE', *, *, #146, .F. ) ;
#138 = CLOSED_SHELL ( 'NONE', ( #111, #97, #108, #142, #149 ) ) ;
#139 = ORIENTED_EDGE ( 'NONE', *, *, #104, .T. ) ;
#140 = ORIENTED_EDGE ( 'NONE', *, *, #141, .T. ) ;
#141 = EDGE_CURVE ( 'NONE', #102, #105, #86, .T. ) ;
#142 = ADVANCED_FACE ( 'NONE', ( #26 ), #25, .T. ) ;
#143 = EDGE_LOOP ( 'NONE', ( #144, #145, #147, #148 ) ) ;
#144 = ORIENTED_EDGE ( 'NONE', *, *, #101, .F. ) ;
#145 = ORIENTED_EDGE ( 'NONE', *, *, #146, .T. ) ;
#146 = EDGE_CURVE ( 'NONE', #119, #116, #8, .T. ) ;
#147 = ORIENTED_EDGE ( 'NONE', *, *, #107, .T. ) ;
#148 = ORIENTED_EDGE ( 'NONE', *, *, #141, .F. ) ;
#149 = ADVANCED_FACE ( 'NONE', ( #17 ), #11, .T. ) ;
#150 = UNCERTAINTY_MEASURE_WITH_UNIT (LENGTH_MEASURE( 1.000000000000000100E-005 ), #22, 'distance_accuracy_value', 'NONE');
#151 = DIRECTION ( 'NONE',  ( -1.224606353822377300E-016, 1.000000000000000000, 0.0000000000000000000 ) ) ;
ENDSEC;
END-ISO-10303-21;
