ISO-10303-21;
HEADER;
FILE_DESCRIPTION (( 'STEP AP203' ),
    '1' );
FILE_NAME ('21990-E0W.STEP',
    '2018-06-01T18:10:36',
    ( 'admin' ),
    ( '' ),
    'SwSTEP 2.0',
    'SolidWorks 2016',
    '' );
FILE_SCHEMA (( 'CONFIG_CONTROL_DESIGN' ));
ENDSEC;

DATA;
#1 =( CONVERSION_BASED_UNIT ( 'INCH', #27 ) LENGTH_UNIT ( ) NAMED_UNIT ( #79 ) );
#2 = EDGE_CURVE ( 'NONE', #299, #285, #172, .T. ) ;
#3 = EDGE_CURVE ( 'NONE', #306, #114, #326, .T. ) ;
#4 = DATE_TIME_ROLE ( 'creation_date' ) ;
#5 = ADVANCED_FACE ( 'NONE', ( #262 ), #179, .T. ) ;
#6 = ORIENTED_EDGE ( 'NONE', *, *, #243, .T. ) ;
#7 =( LENGTH_UNIT ( ) NAMED_UNIT ( * ) SI_UNIT ( $, .METRE. ) );
#8 = EDGE_CURVE ( 'NONE', #15, #299, #142, .T. ) ;
#9 = CARTESIAN_POINT ( 'NONE',  ( 0.0000000000000000000, 0.0000000000000000000, 0.0000000000000000000 ) ) ;
#10 = VECTOR ( 'NONE', #184, 39.37007874015748100 ) ;
#11 = CONICAL_SURFACE ( 'NONE', #268, 0.5000000000000000000, 0.7853981633974606000 ) ;
#12 = ORIENTED_EDGE ( 'NONE', *, *, #46, .F. ) ;
#13 = EDGE_CURVE ( 'NONE', #42, #323, #164, .T. ) ;
#14 = ADVANCED_FACE ( 'NONE', ( #153 ), #11, .T. ) ;
#15 = VERTEX_POINT ( 'NONE', #276 ) ;
#16 = EDGE_CURVE ( 'NONE', #314, #306, #20, .T. ) ;
#17 = CARTESIAN_POINT ( 'NONE',  ( 0.0000000000000000000, 0.0000000000000000000, 1.278887065054646900 ) ) ;
#18 = EDGE_CURVE ( 'NONE', #285, #114, #211, .T. ) ;
#19 = CARTESIAN_POINT ( 'NONE',  ( 0.0000000000000000000, -0.4944322300693969600, -0.007305209598018730900 ) ) ;
#20 = LINE ( 'NONE', #217, #85 ) ;
#21 = ORIENTED_EDGE ( 'NONE', *, *, #3, .F. ) ;
#22 = EDGE_CURVE ( 'NONE', #202, #314, #145, .T. ) ;
#23 = EDGE_LOOP ( 'NONE', ( #328, #80, #62 ) ) ;
#24 = PRODUCT_DEFINITION_SHAPE ( 'NONE', 'NONE',  #78 ) ;
#25 = AXIS2_PLACEMENT_3D ( 'NONE', #84, #83, #77 ) ;
#26 = ORIENTED_EDGE ( 'NONE', *, *, #18, .F. ) ;
#27 = LENGTH_MEASURE_WITH_UNIT ( LENGTH_MEASURE( 0.02539999999999999900 ), #7 );
#28 = EDGE_CURVE ( 'NONE', #126, #202, #150, .T. ) ;
#29 = ORIENTED_EDGE ( 'NONE', *, *, #28, .F. ) ;
#30 = CARTESIAN_POINT ( 'NONE',  ( 0.0000000000000000000, -0.5000000000000000000, -0.001737439667416033400 ) ) ;
#31 = FACE_OUTER_BOUND ( 'NONE', #197, .T. ) ;
#32 = ORIENTED_EDGE ( 'NONE', *, *, #245, .F. ) ;
#33 = CC_DESIGN_APPROVAL ( #249, ( #264 ) ) ;
#34 = FACE_OUTER_BOUND ( 'NONE', #151, .T. ) ;
#35 = COORDINATED_UNIVERSAL_TIME_OFFSET ( 5, 0, .BEHIND. ) ;
#36 = DATE_AND_TIME ( #206, #88 ) ;
#37 = CARTESIAN_POINT ( 'NONE',  ( 0.0000000000000000000, 0.5000000000000000000, 0.09259176229061948100 ) ) ;
#38 = ORIENTED_EDGE ( 'NONE', *, *, #18, .T. ) ;
#39 = LINE ( 'NONE', #258, #159 ) ;
#40 = DIRECTION ( 'NONE',  ( -0.0000000000000000000, -1.836909530733565900E-016, 1.000000000000000000 ) ) ;
#41 = EDGE_CURVE ( 'NONE', #285, #299, #279, .T. ) ;
#42 = VERTEX_POINT ( 'NONE', #265 ) ;
#43 = PERSON_AND_ORGANIZATION ( #281, #111 ) ;
#44 = CALENDAR_DATE ( 2018, 1, 6 ) ;
#45 = LOCAL_TIME ( 14, 10, 36.00000000000000000, #155 ) ;
#46 = EDGE_CURVE ( 'NONE', #126, #323, #74, .T. ) ;
#47 = EDGE_CURVE ( 'NONE', #202, #114, #39, .T. ) ;
#48 = SPHERICAL_SURFACE ( 'NONE', #292, 3.095275590551181700 ) ;
#49 = DIRECTION ( 'NONE',  ( 0.0000000000000000000, -1.000000000000000000, -1.878145495644180800E-016 ) ) ;
#50 = PERSON_AND_ORGANIZATION ( #281, #111 ) ;
#51 = ADVANCED_BREP_SHAPE_REPRESENTATION ( '21990-E0W', ( #163, #304 ), #91 ) ;
#52 = DIRECTION ( 'NONE',  ( -0.0000000000000000000, -1.836909530733565900E-016, 1.000000000000000000 ) ) ;
#53 = EDGE_CURVE ( 'NONE', #323, #126, #70, .T. ) ;
#54 = APPROVAL_ROLE ( '' ) ;
#55 = CARTESIAN_POINT ( 'NONE',  ( 0.0000000000000000000, -0.5000000000000000000, 0.09259176229061931400 ) ) ;
#56 = DIRECTION ( 'NONE',  ( 0.0000000000000000000, 0.0000000000000000000, 1.000000000000000000 ) ) ;
#57 = CARTESIAN_POINT ( 'NONE',  ( 0.0000000000000000000, -6.278031085760942000E-018, 0.09259176229061939800 ) ) ;
#58 = PERSON_AND_ORGANIZATION ( #281, #111 ) ;
#59 = AXIS2_PLACEMENT_3D ( 'NONE', #149, #148, #143 ) ;
#60 = CARTESIAN_POINT ( 'NONE',  ( -6.055048479497752000E-017, -0.4944322300693966800, 0.09815953222122200700 ) ) ;
#61 = AXIS2_PLACEMENT_3D ( 'NONE', #65, #52, #49 ) ;
#62 = ORIENTED_EDGE ( 'NONE', *, *, #41, .T. ) ;
#63 = FACE_OUTER_BOUND ( 'NONE', #132, .T. ) ;
#64 = CARTESIAN_POINT ( 'NONE',  ( 0.0000000000000000000, 0.4944322300693972400, 0.09815953222122211800 ) ) ;
#65 = CARTESIAN_POINT ( 'NONE',  ( 0.0000000000000000000, 0.0000000000000000000, 0.05841462410976502900 ) ) ;
#66 = DATE_AND_TIME ( #44, #45 ) ;
#67 = ORIENTED_EDGE ( 'NONE', *, *, #53, .F. ) ;
#68 = DIRECTION ( 'NONE',  ( 0.0000000000000000000, 1.000000000000000000, 1.707404996040164500E-016 ) ) ;
#69 = DIRECTION ( 'NONE',  ( 0.0000000000000000000, -1.000000000000000000, -1.707404996040164500E-016 ) ) ;
#70 = CIRCLE ( 'NONE', #156, 0.4944322300693971300 ) ;
#71 = DIRECTION ( 'NONE',  ( -0.0000000000000000000, -1.836909530733565900E-016, 1.000000000000000000 ) ) ;
#72 = CARTESIAN_POINT ( 'NONE',  ( 0.0000000000000000000, -6.278031085760942000E-018, 0.09259176229061939800 ) ) ;
#73 = DIRECTION ( 'NONE',  ( -1.000000000000000000, 0.0000000000000000000, -0.0000000000000000000 ) ) ;
#74 = CIRCLE ( 'NONE', #293, 0.4944322300693971300 ) ;
#75 = ADVANCED_FACE ( 'NONE', ( #221 ), #185, .T. ) ;
#76 = DIRECTION ( 'NONE',  ( 0.0000000000000000000, -1.000000000000000000, -1.982541115402065100E-016 ) ) ;
#77 = DIRECTION ( 'NONE',  ( 0.0000000000000000000, -1.000000000000000000, -1.835460370743176800E-016 ) ) ;
#78 = PRODUCT_DEFINITION ( 'UNKNOWN', '', #264, #191 ) ;
#79 = DIMENSIONAL_EXPONENTS ( 1.000000000000000000, 0.0000000000000000000, 0.0000000000000000000, 0.0000000000000000000, 0.0000000000000000000, 0.0000000000000000000, 0.0000000000000000000 ) ;
#80 = ORIENTED_EDGE ( 'NONE', *, *, #104, .T. ) ;
#81 = ORIENTED_EDGE ( 'NONE', *, *, #22, .T. ) ;
#82 = PERSON_AND_ORGANIZATION ( #281, #111 ) ;
#83 = DIRECTION ( 'NONE',  ( -0.0000000000000000000, -1.836909530733565900E-016, 1.000000000000000000 ) ) ;
#84 = CARTESIAN_POINT ( 'NONE',  ( 0.0000000000000000000, 1.104938992455970300E-017, -0.001737439667415941700 ) ) ;
#85 = VECTOR ( 'NONE', #284, 39.37007874015748100 ) ;
#86 = CARTESIAN_POINT ( 'NONE',  ( 0.0000000000000000000, 0.0000000000000000000, 0.05841462410976502900 ) ) ;
#87 = EDGE_LOOP ( 'NONE', ( #115, #247, #267, #26 ) ) ;
#88 = LOCAL_TIME ( 14, 10, 36.00000000000000000, #273 ) ;
#89 = CIRCLE ( 'NONE', #158, 0.5000000000000000000 ) ;
#90 = ORIENTED_EDGE ( 'NONE', *, *, #165, .T. ) ;
#91 =( GEOMETRIC_REPRESENTATION_CONTEXT ( 3 ) GLOBAL_UNCERTAINTY_ASSIGNED_CONTEXT ( ( #307 ) ) GLOBAL_UNIT_ASSIGNED_CONTEXT ( ( #1, #232, #250 ) ) REPRESENTATION_CONTEXT ( 'NONE', 'WORKASPACE' ) );
#92 = APPROVAL_PERSON_ORGANIZATION ( #129, #249, #54 ) ;
#93 = DATE_AND_TIME ( #271, #195 ) ;
#94 = SHAPE_DEFINITION_REPRESENTATION ( #24, #51 ) ;
#95 = DIRECTION ( 'NONE',  ( 8.659560562355040100E-017, -0.7071067811865561200, -0.7071067811865389100 ) ) ;
#96 = DIRECTION ( 'NONE',  ( -1.224646799147353200E-016, -1.000000000000000000, 0.0000000000000000000 ) ) ;
#97 = CARTESIAN_POINT ( 'NONE',  ( 6.123233995736766000E-017, -0.5000000000000000000, 0.09259176229061931400 ) ) ;
#98 = CC_DESIGN_PERSON_AND_ORGANIZATION_ASSIGNMENT ( #50, #107, ( #113 ) ) ;
#99 = ORIENTED_EDGE ( 'NONE', *, *, #16, .T. ) ;
#100 = CARTESIAN_POINT ( 'NONE',  ( 0.0000000000000000000, -6.278031085760942000E-018, 0.09259176229061939800 ) ) ;
#101 = CLOSED_SHELL ( 'NONE', ( #14, #282, #238, #313, #205, #180, #161, #75, #308, #5 ) ) ;
#102 = CC_DESIGN_PERSON_AND_ORGANIZATION_ASSIGNMENT ( #58, #216, ( #78 ) ) ;
#103 = DIRECTION ( 'NONE',  ( 0.0000000000000000000, 1.836909530733565900E-016, -1.000000000000000000 ) ) ;
#104 = EDGE_CURVE ( 'NONE', #15, #285, #175, .T. ) ;
#105 = DIRECTION ( 'NONE',  ( -0.0000000000000000000, -1.836909530733565900E-016, 1.000000000000000000 ) ) ;
#106 = CALENDAR_DATE ( 2018, 1, 6 ) ;
#107 = PERSON_AND_ORGANIZATION_ROLE ( 'design_owner' ) ;
#108 = DIRECTION ( 'NONE',  ( 0.0000000000000000000, -1.000000000000000000, -1.878145495644180800E-016 ) ) ;
#109 = APPROVAL ( #120, 'UNSPECIFIED' ) ;
#110 = PERSON_AND_ORGANIZATION_ROLE ( 'creator' ) ;
#111 = ORGANIZATION ( 'UNSPECIFIED', 'UNSPECIFIED', '' ) ;
#112 = ORIENTED_EDGE ( 'NONE', *, *, #2, .T. ) ;
#113 = PRODUCT ( '21990-E0W', '21990-E0W', '', ( #152 ) ) ;
#114 = VERTEX_POINT ( 'NONE', #199 ) ;
#115 = ORIENTED_EDGE ( 'NONE', *, *, #2, .F. ) ;
#116 = CARTESIAN_POINT ( 'NONE',  ( 0.0000000000000000000, 1.207213888960530000E-017, -0.007305209598018703100 ) ) ;
#117 = DIRECTION ( 'NONE',  ( 0.0000000000000000000, -1.000000000000000000, -1.834546473677545500E-016 ) ) ;
#118 = CYLINDRICAL_SURFACE ( 'NONE', #204, 0.5000000000000000000 ) ;
#119 = DIRECTION ( 'NONE',  ( -0.0000000000000000000, -1.836909530733565900E-016, 1.000000000000000000 ) ) ;
#120 = APPROVAL_STATUS ( 'not_yet_approved' ) ;
#121 = CALENDAR_DATE ( 2018, 1, 6 ) ;
#122 = AXIS2_PLACEMENT_3D ( 'NONE', #127, #136, #125 ) ;
#123 = APPLICATION_CONTEXT ( 'configuration controlled 3d designs of mechanical parts and assemblies' ) ;
#124 = FACE_OUTER_BOUND ( 'NONE', #138, .T. ) ;
#125 = DIRECTION ( 'NONE',  ( 0.0000000000000000000, 1.000000000000000000, 1.765172705140480300E-016 ) ) ;
#126 = VERTEX_POINT ( 'NONE', #201 ) ;
#127 = CARTESIAN_POINT ( 'NONE',  ( 0.0000000000000000000, 0.0000000000000000000, 3.153690214660946500 ) ) ;
#128 = CONICAL_SURFACE ( 'NONE', #226, 0.4944322300693971300, 0.7853981633974590500 ) ;
#129 = PERSON_AND_ORGANIZATION ( #281, #111 ) ;
#130 = DIRECTION ( 'NONE',  ( -0.0000000000000000000, -1.836909530733565900E-016, 1.000000000000000000 ) ) ;
#131 = CARTESIAN_POINT ( 'NONE',  ( 6.123233995736766000E-017, 0.5000000000000000000, -0.001737439667415849700 ) ) ;
#132 = EDGE_LOOP ( 'NONE', ( #6, #309, #21, #146 ) ) ;
#133 = APPROVAL_PERSON_ORGANIZATION ( #272, #109, #140 ) ;
#134 = COORDINATED_UNIVERSAL_TIME_OFFSET ( 5, 0, .BEHIND. ) ;
#135 = ORIENTED_EDGE ( 'NONE', *, *, #170, .F. ) ;
#136 = DIRECTION ( 'NONE',  ( -1.000000000000000000, 0.0000000000000000000, 0.0000000000000000000 ) ) ;
#137 = CARTESIAN_POINT ( 'NONE',  ( 0.0000000000000000000, -7.300780050806526000E-018, 0.09815953222122207600 ) ) ;
#138 = EDGE_LOOP ( 'NONE', ( #256, #81, #99, #32 ) ) ;
#139 = LINE ( 'NONE', #255, #10 ) ;
#140 = APPROVAL_ROLE ( '' ) ;
#141 = LINE ( 'NONE', #97, #294 ) ;
#142 = CIRCLE ( 'NONE', #296, 3.095275590551181700 ) ;
#143 = DIRECTION ( 'NONE',  ( 1.224646799147353200E-016, 1.000000000000000000, 0.0000000000000000000 ) ) ;
#144 = SPHERICAL_SURFACE ( 'NONE', #261, 1.377952755905512000 ) ;
#145 = CIRCLE ( 'NONE', #259, 0.5000000000000000000 ) ;
#146 = ORIENTED_EDGE ( 'NONE', *, *, #16, .F. ) ;
#147 = CC_DESIGN_SECURITY_CLASSIFICATION ( #298, ( #264 ) ) ;
#148 = DIRECTION ( 'NONE',  ( 1.000000000000000000, -1.224646799147353200E-016, -2.249565377136128000E-032 ) ) ;
#149 = CARTESIAN_POINT ( 'NONE',  ( 0.0000000000000000000, 0.0000000000000000000, 1.278887065054646900 ) ) ;
#150 = LINE ( 'NONE', #289, #193 ) ;
#151 = EDGE_LOOP ( 'NONE', ( #210, #171, #112 ) ) ;
#152 = MECHANICAL_CONTEXT ( 'NONE', #123, 'mechanical' ) ;
#153 = FACE_OUTER_BOUND ( 'NONE', #87, .T. ) ;
#154 = DIRECTION ( 'NONE',  ( -1.000000000000000000, 0.0000000000000000000, 0.0000000000000000000 ) ) ;
#155 = COORDINATED_UNIVERSAL_TIME_OFFSET ( 5, 0, .BEHIND. ) ;
#156 = AXIS2_PLACEMENT_3D ( 'NONE', #208, #207, #203 ) ;
#157 = CARTESIAN_POINT ( 'NONE',  ( 0.0000000000000000000, 0.0000000000000000000, 1.278887065054646900 ) ) ;
#158 = AXIS2_PLACEMENT_3D ( 'NONE', #72, #71, #69 ) ;
#159 = VECTOR ( 'NONE', #287, 39.37007874015748100 ) ;
#160 = ORIENTED_EDGE ( 'NONE', *, *, #13, .T. ) ;
#161 = ADVANCED_FACE ( 'NONE', ( #266 ), #144, .T. ) ;
#162 = DIRECTION ( 'NONE',  ( -0.0000000000000000000, -1.836909530733565900E-016, 1.000000000000000000 ) ) ;
#163 = MANIFOLD_SOLID_BREP ( '21990-001-1-solid1', #101 ) ;
#164 = CIRCLE ( 'NONE', #275, 1.377952755905512000 ) ;
#165 = EDGE_CURVE ( 'NONE', #323, #314, #139, .T. ) ;
#166 = FACE_OUTER_BOUND ( 'NONE', #219, .T. ) ;
#167 = ORIENTED_EDGE ( 'NONE', *, *, #170, .T. ) ;
#168 = PERSON_AND_ORGANIZATION_ROLE ( 'design_supplier' ) ;
#169 = APPROVAL ( #188, 'UNSPECIFIED' ) ;
#170 = EDGE_CURVE ( 'NONE', #42, #126, #252, .T. ) ;
#171 = ORIENTED_EDGE ( 'NONE', *, *, #8, .T. ) ;
#172 = CIRCLE ( 'NONE', #280, 0.4944322300693971800 ) ;
#173 = APPROVAL_DATE_TIME ( #241, #109 ) ;
#174 = CC_DESIGN_PERSON_AND_ORGANIZATION_ASSIGNMENT ( #43, #110, ( #264 ) ) ;
#175 = CIRCLE ( 'NONE', #239, 3.095275590551181700 ) ;
#176 = DIRECTION ( 'NONE',  ( 0.0000000000000000000, 1.836909530733565900E-016, -1.000000000000000000 ) ) ;
#177 = CARTESIAN_POINT ( 'NONE',  ( 0.0000000000000000000, 0.0000000000000000000, 3.153690214660946500 ) ) ;
#178 = DATE_AND_TIME ( #121, #230 ) ;
#179 = CONICAL_SURFACE ( 'NONE', #248, 0.5000000000000000000, 0.7853981633974606000 ) ;
#180 = ADVANCED_FACE ( 'NONE', ( #270 ), #48, .F. ) ;
#181 = DIRECTION ( 'NONE',  ( 0.0000000000000000000, -1.000000000000000000, -1.982541115402065100E-016 ) ) ;
#182 = CARTESIAN_POINT ( 'NONE',  ( 0.0000000000000000000, 0.0000000000000000000, 1.278887065054646900 ) ) ;
#183 = LOCAL_TIME ( 14, 10, 36.00000000000000000, #305 ) ;
#184 = DIRECTION ( 'NONE',  ( 0.0000000000000000000, -0.7071067811865552300, 0.7071067811865398000 ) ) ;
#185 = CONICAL_SURFACE ( 'NONE', #222, 0.4944322300693971300, 0.7853981633974590500 ) ;
#186 = DIRECTION ( 'NONE',  ( 0.0000000000000000000, -1.000000000000000000, -1.707404996040164500E-016 ) ) ;
#187 = DIRECTION ( 'NONE',  ( 0.0000000000000000000, 0.0000000000000000000, -1.000000000000000000 ) ) ;
#188 = APPROVAL_STATUS ( 'not_yet_approved' ) ;
#189 = DIRECTION ( 'NONE',  ( 1.000000000000000000, 0.0000000000000000000, 0.0000000000000000000 ) ) ;
#190 = CARTESIAN_POINT ( 'NONE',  ( 0.0000000000000000000, 0.0000000000000000000, 3.153690214660946500 ) ) ;
#191 = DESIGN_CONTEXT ( 'detailed design', #315, 'design' ) ;
#192 = DIRECTION ( 'NONE',  ( 1.000000000000000000, 0.0000000000000000000, 0.0000000000000000000 ) ) ;
#193 = VECTOR ( 'NONE', #297, 39.37007874015748100 ) ;
#194 = ORIENTED_EDGE ( 'NONE', *, *, #28, .T. ) ;
#195 = LOCAL_TIME ( 14, 10, 36.00000000000000000, #35 ) ;
#196 = AXIS2_PLACEMENT_3D ( 'NONE', #157, #235, #76 ) ;
#197 = EDGE_LOOP ( 'NONE', ( #212, #194, #229, #251 ) ) ;
#198 = ORIENTED_EDGE ( 'NONE', *, *, #46, .T. ) ;
#199 = CARTESIAN_POINT ( 'NONE',  ( 6.123233995736766000E-017, 0.5000000000000000000, 0.09259176229061948100 ) ) ;
#200 = CYLINDRICAL_SURFACE ( 'NONE', #61, 0.5000000000000000000 ) ;
#201 = CARTESIAN_POINT ( 'NONE',  ( 6.055048479497748300E-017, 0.4944322300693972400, -0.007305209598018640700 ) ) ;
#202 = VERTEX_POINT ( 'NONE', #131 ) ;
#203 = DIRECTION ( 'NONE',  ( 0.0000000000000000000, -1.000000000000000000, -1.834546473677545500E-016 ) ) ;
#204 = AXIS2_PLACEMENT_3D ( 'NONE', #86, #237, #108 ) ;
#205 = ADVANCED_FACE ( 'NONE', ( #34 ), #224, .F. ) ;
#206 = CALENDAR_DATE ( 2018, 1, 6 ) ;
#207 = DIRECTION ( 'NONE',  ( -0.0000000000000000000, -1.836909530733565900E-016, 1.000000000000000000 ) ) ;
#208 = CARTESIAN_POINT ( 'NONE',  ( 0.0000000000000000000, 1.207213888960530000E-017, -0.007305209598018703100 ) ) ;
#209 = APPROVAL_ROLE ( '' ) ;
#210 = ORIENTED_EDGE ( 'NONE', *, *, #104, .F. ) ;
#211 = LINE ( 'NONE', #37, #302 ) ;
#212 = ORIENTED_EDGE ( 'NONE', *, *, #53, .T. ) ;
#213 = ORIENTED_EDGE ( 'NONE', *, *, #22, .F. ) ;
#214 = DIRECTION ( 'NONE',  ( 0.0000000000000000000, -1.000000000000000000, -1.834546473677545500E-016 ) ) ;
#215 = CARTESIAN_POINT ( 'NONE',  ( 0.0000000000000000000, 1.207213888960530000E-017, -0.007305209598018703100 ) ) ;
#216 = PERSON_AND_ORGANIZATION_ROLE ( 'creator' ) ;
#217 = CARTESIAN_POINT ( 'NONE',  ( 0.0000000000000000000, -0.5000000000000000000, 0.05841462410976493200 ) ) ;
#218 = CC_DESIGN_DATE_AND_TIME_ASSIGNMENT ( #178, #233, ( #298 ) ) ;
#219 = EDGE_LOOP ( 'NONE', ( #329, #167, #67 ) ) ;
#220 = DIRECTION ( 'NONE',  ( 0.0000000000000000000, -1.000000000000000000, -1.834546473677545500E-016 ) ) ;
#221 = FACE_OUTER_BOUND ( 'NONE', #283, .T. ) ;
#222 = AXIS2_PLACEMENT_3D ( 'NONE', #215, #288, #214 ) ;
#223 = CIRCLE ( 'NONE', #25, 0.5000000000000000000 ) ;
#224 = SPHERICAL_SURFACE ( 'NONE', #122, 3.095275590551181700 ) ;
#225 = APPLICATION_PROTOCOL_DEFINITION ( 'international standard', 'config_control_design', 1994, #123 ) ;
#226 = AXIS2_PLACEMENT_3D ( 'NONE', #116, #119, #117 ) ;
#227 = CC_DESIGN_APPROVAL ( #169, ( #78 ) ) ;
#228 = PERSON_AND_ORGANIZATION ( #281, #111 ) ;
#229 = ORIENTED_EDGE ( 'NONE', *, *, #243, .F. ) ;
#230 = LOCAL_TIME ( 14, 10, 36.00000000000000000, #134 ) ;
#231 = DIRECTION ( 'NONE',  ( 1.000000000000000000, 0.0000000000000000000, 0.0000000000000000000 ) ) ;
#232 =( NAMED_UNIT ( * ) PLANE_ANGLE_UNIT ( ) SI_UNIT ( $, .RADIAN. ) );
#233 = DATE_TIME_ROLE ( 'classification_date' ) ;
#234 = DIRECTION ( 'NONE',  ( 0.0000000000000000000, -1.000000000000000000, -1.726631975225925000E-016 ) ) ;
#235 = DIRECTION ( 'NONE',  ( 1.000000000000000000, 0.0000000000000000000, 0.0000000000000000000 ) ) ;
#236 = APPROVAL_PERSON_ORGANIZATION ( #228, #169, #209 ) ;
#237 = DIRECTION ( 'NONE',  ( -0.0000000000000000000, -1.836909530733565900E-016, 1.000000000000000000 ) ) ;
#238 = ADVANCED_FACE ( 'NONE', ( #31 ), #128, .T. ) ;
#239 = AXIS2_PLACEMENT_3D ( 'NONE', #190, #189, #187 ) ;
#240 = EDGE_CURVE ( 'NONE', #299, #306, #141, .T. ) ;
#241 = DATE_AND_TIME ( #106, #183 ) ;
#242 = ORIENTED_EDGE ( 'NONE', *, *, #245, .T. ) ;
#243 = EDGE_CURVE ( 'NONE', #314, #202, #223, .T. ) ;
#244 = PERSON_AND_ORGANIZATION_ROLE ( 'classification_officer' ) ;
#245 = EDGE_CURVE ( 'NONE', #114, #306, #89, .T. ) ;
#246 = CC_DESIGN_PERSON_AND_ORGANIZATION_ASSIGNMENT ( #82, #244, ( #298 ) ) ;
#247 = ORIENTED_EDGE ( 'NONE', *, *, #240, .T. ) ;
#248 = AXIS2_PLACEMENT_3D ( 'NONE', #57, #176, #321 ) ;
#249 = APPROVAL ( #330, 'UNSPECIFIED' ) ;
#250 =( NAMED_UNIT ( * ) SI_UNIT ( $, .STERADIAN. ) SOLID_ANGLE_UNIT ( ) );
#251 = ORIENTED_EDGE ( 'NONE', *, *, #165, .F. ) ;
#252 = CIRCLE ( 'NONE', #59, 1.377952755905512000 ) ;
#253 = AXIS2_PLACEMENT_3D ( 'NONE', #274, #130, #278 ) ;
#254 = DIRECTION ( 'NONE',  ( 0.0000000000000000000, 1.000000000000000000, 1.765172705140480300E-016 ) ) ;
#255 = CARTESIAN_POINT ( 'NONE',  ( 0.0000000000000000000, -0.4944322300693971300, -0.007305209598018793300 ) ) ;
#256 = ORIENTED_EDGE ( 'NONE', *, *, #47, .F. ) ;
#257 = CARTESIAN_POINT ( 'NONE',  ( 0.0000000000000000000, 1.207213888960530000E-017, -0.007305209598018703100 ) ) ;
#258 = CARTESIAN_POINT ( 'NONE',  ( 6.123233995736766000E-017, 0.5000000000000000000, 0.05841462410976511900 ) ) ;
#259 = AXIS2_PLACEMENT_3D ( 'NONE', #295, #301, #303 ) ;
#260 = CC_DESIGN_APPROVAL ( #109, ( #298 ) ) ;
#261 = AXIS2_PLACEMENT_3D ( 'NONE', #182, #192, #181 ) ;
#262 = FACE_OUTER_BOUND ( 'NONE', #327, .T. ) ;
#263 = PERSON_AND_ORGANIZATION ( #281, #111 ) ;
#264 = PRODUCT_DEFINITION_FORMATION_WITH_SPECIFIED_SOURCE ( 'ANY', '', #113, .NOT_KNOWN. ) ;
#265 = CARTESIAN_POINT ( 'NONE',  ( 0.0000000000000000000, 1.687421834275437900E-016, -0.09906569085086502900 ) ) ;
#266 = FACE_OUTER_BOUND ( 'NONE', #324, .T. ) ;
#267 = ORIENTED_EDGE ( 'NONE', *, *, #3, .T. ) ;
#268 = AXIS2_PLACEMENT_3D ( 'NONE', #100, #103, #68 ) ;
#269 = AXIS2_PLACEMENT_3D ( 'NONE', #319, #105, #186 ) ;
#270 = FACE_OUTER_BOUND ( 'NONE', #23, .T. ) ;
#271 = CALENDAR_DATE ( 2018, 1, 6 ) ;
#272 = PERSON_AND_ORGANIZATION ( #281, #111 ) ;
#273 = COORDINATED_UNIVERSAL_TIME_OFFSET ( 5, 0, .BEHIND. ) ;
#274 = CARTESIAN_POINT ( 'NONE',  ( 0.0000000000000000000, -7.300780050806526000E-018, 0.09815953222122207600 ) ) ;
#275 = AXIS2_PLACEMENT_3D ( 'NONE', #17, #73, #312 ) ;
#276 = CARTESIAN_POINT ( 'NONE',  ( 0.0000000000000000000, 7.581050904754151100E-016, 0.05841462410976503600 ) ) ;
#277 = PRODUCT_RELATED_PRODUCT_CATEGORY ( 'detail', '', ( #113 ) ) ;
#278 = DIRECTION ( 'NONE',  ( 0.0000000000000000000, -1.000000000000000000, -1.726631975225925000E-016 ) ) ;
#279 = CIRCLE ( 'NONE', #253, 0.4944322300693971800 ) ;
#280 = AXIS2_PLACEMENT_3D ( 'NONE', #137, #162, #234 ) ;
#281 = PERSON ( 'UNSPECIFIED', 'UNSPECIFIED', 'UNSPECIFIED', ('UNSPECIFIED'), ('UNSPECIFIED'), ('UNSPECIFIED') ) ;
#282 = ADVANCED_FACE ( 'NONE', ( #63 ), #118, .T. ) ;
#283 = EDGE_LOOP ( 'NONE', ( #29, #198, #90, #213 ) ) ;
#284 = DIRECTION ( 'NONE',  ( -0.0000000000000000000, -1.836909530733566100E-016, 1.000000000000000000 ) ) ;
#285 = VERTEX_POINT ( 'NONE', #64 ) ;
#286 = CC_DESIGN_DATE_AND_TIME_ASSIGNMENT ( #93, #4, ( #78 ) ) ;
#287 = DIRECTION ( 'NONE',  ( -0.0000000000000000000, -1.836909530733566100E-016, 1.000000000000000000 ) ) ;
#288 = DIRECTION ( 'NONE',  ( -0.0000000000000000000, -1.836909530733565900E-016, 1.000000000000000000 ) ) ;
#289 = CARTESIAN_POINT ( 'NONE',  ( 6.055048479497748300E-017, 0.4944322300693971300, -0.007305209598018612100 ) ) ;
#290 = APPROVAL_DATE_TIME ( #36, #169 ) ;
#291 = APPROVAL_DATE_TIME ( #66, #249 ) ;
#292 = AXIS2_PLACEMENT_3D ( 'NONE', #177, #154, #254 ) ;
#293 = AXIS2_PLACEMENT_3D ( 'NONE', #257, #40, #220 ) ;
#294 = VECTOR ( 'NONE', #95, 39.37007874015748100 ) ;
#295 = CARTESIAN_POINT ( 'NONE',  ( 0.0000000000000000000, 1.104938992455970300E-017, -0.001737439667415941700 ) ) ;
#296 = AXIS2_PLACEMENT_3D ( 'NONE', #317, #316, #96 ) ;
#297 = DIRECTION ( 'NONE',  ( 8.659560562355026500E-017, 0.7071067811865550100, 0.7071067811865400200 ) ) ;
#298 = SECURITY_CLASSIFICATION ( '', '', #318 ) ;
#299 = VERTEX_POINT ( 'NONE', #60 ) ;
#300 = ORIENTED_EDGE ( 'NONE', *, *, #41, .F. ) ;
#301 = DIRECTION ( 'NONE',  ( -0.0000000000000000000, -1.836909530733565900E-016, 1.000000000000000000 ) ) ;
#302 = VECTOR ( 'NONE', #311, 39.37007874015748100 ) ;
#303 = DIRECTION ( 'NONE',  ( 0.0000000000000000000, -1.000000000000000000, -1.835460370743176800E-016 ) ) ;
#304 = AXIS2_PLACEMENT_3D ( 'NONE', #9, #56, #231 ) ;
#305 = COORDINATED_UNIVERSAL_TIME_OFFSET ( 5, 0, .BEHIND. ) ;
#306 = VERTEX_POINT ( 'NONE', #55 ) ;
#307 = UNCERTAINTY_MEASURE_WITH_UNIT (LENGTH_MEASURE( 1.000000000000000100E-005 ), #1, 'distance_accuracy_value', 'NONE');
#308 = ADVANCED_FACE ( 'NONE', ( #124 ), #200, .T. ) ;
#309 = ORIENTED_EDGE ( 'NONE', *, *, #47, .T. ) ;
#310 = ORIENTED_EDGE ( 'NONE', *, *, #240, .F. ) ;
#311 = DIRECTION ( 'NONE',  ( 0.0000000000000000000, 0.7071067811865563400, -0.7071067811865386900 ) ) ;
#312 = DIRECTION ( 'NONE',  ( 0.0000000000000000000, 0.0000000000000000000, 1.000000000000000000 ) ) ;
#313 = ADVANCED_FACE ( 'NONE', ( #166 ), #320, .T. ) ;
#314 = VERTEX_POINT ( 'NONE', #30 ) ;
#315 = APPLICATION_CONTEXT ( 'configuration controlled 3d designs of mechanical parts and assemblies' ) ;
#316 = DIRECTION ( 'NONE',  ( -1.000000000000000000, 1.224646799147353200E-016, 2.249565377136128000E-032 ) ) ;
#317 = CARTESIAN_POINT ( 'NONE',  ( 0.0000000000000000000, 0.0000000000000000000, 3.153690214660946500 ) ) ;
#318 = SECURITY_CLASSIFICATION_LEVEL ( 'unclassified' ) ;
#319 = CARTESIAN_POINT ( 'NONE',  ( 0.0000000000000000000, -6.278031085760942000E-018, 0.09259176229061939800 ) ) ;
#320 = SPHERICAL_SURFACE ( 'NONE', #196, 1.377952755905512000 ) ;
#321 = DIRECTION ( 'NONE',  ( 0.0000000000000000000, 1.000000000000000000, 1.707404996040164500E-016 ) ) ;
#322 = APPLICATION_PROTOCOL_DEFINITION ( 'international standard', 'config_control_design', 1994, #315 ) ;
#323 = VERTEX_POINT ( 'NONE', #19 ) ;
#324 = EDGE_LOOP ( 'NONE', ( #135, #160, #12 ) ) ;
#325 = CC_DESIGN_PERSON_AND_ORGANIZATION_ASSIGNMENT ( #263, #168, ( #264 ) ) ;
#326 = CIRCLE ( 'NONE', #269, 0.5000000000000000000 ) ;
#327 = EDGE_LOOP ( 'NONE', ( #310, #300, #38, #242 ) ) ;
#328 = ORIENTED_EDGE ( 'NONE', *, *, #8, .F. ) ;
#329 = ORIENTED_EDGE ( 'NONE', *, *, #13, .F. ) ;
#330 = APPROVAL_STATUS ( 'not_yet_approved' ) ;
ENDSEC;
END-ISO-10303-21;
