ISO-10303-21;
HEADER;
FILE_DESCRIPTION (( 'STEP AP203' ),
    '1' );
FILE_NAME ('Web Model 45310_49641.step',
    '2019-01-07T15:43:36',
    ( '' ),
    ( '' ),
    'SwSTEP 2.0',
    'SolidWorks 2016',
    '' );
FILE_SCHEMA (( 'CONFIG_CONTROL_DESIGN' ));
ENDSEC;

DATA;
#1 = PRODUCT_DEFINITION_FORMATION_WITH_SPECIFIED_SOURCE ( 'ANY', '', #41, .NOT_KNOWN. ) ;
#2 = DIRECTION ( 'NONE',  ( -0.0000000000000000000, -0.0000000000000000000, -1.000000000000000000 ) ) ;
#3 = DIRECTION ( 'NONE',  ( 1.000000000000000000, 0.0000000000000000000, -0.0000000000000000000 ) ) ;
#4 = ORIENTED_EDGE ( 'NONE', *, *, #110, .F. ) ;
#5 = CC_DESIGN_PERSON_AND_ORGANIZATION_ASSIGNMENT ( #52, #126, ( #1 ) ) ;
#6 = ADVANCED_FACE ( 'NONE', ( #72 ), #60, .F. ) ;
#7 = APPROVAL_ROLE ( '' ) ;
#8 = CYLINDRICAL_SURFACE ( 'NONE', #131, 7.500000000000000000 ) ;
#9 = ORIENTED_EDGE ( 'NONE', *, *, #173, .T. ) ;
#10 = CARTESIAN_POINT ( 'NONE',  ( 7.500000000000000000, 9.184850993605147900E-016, -1.000000000000000000 ) ) ;
#11 = ORIENTED_EDGE ( 'NONE', *, *, #134, .T. ) ;
#12 = CC_DESIGN_PERSON_AND_ORGANIZATION_ASSIGNMENT ( #49, #105, ( #103 ) ) ;
#13 = DATE_AND_TIME ( #100, #42 ) ;
#14 = ORIENTED_EDGE ( 'NONE', *, *, #110, .T. ) ;
#15 = CC_DESIGN_APPROVAL ( #109, ( #103 ) ) ;
#16 = PERSON_AND_ORGANIZATION ( #51, #70 ) ;
#17 = CARTESIAN_POINT ( 'NONE',  ( -7.500000000000000000, 0.0000000000000000000, -1.000000000000000000 ) ) ;
#18 = ADVANCED_FACE ( 'NONE', ( #101 ), #102, .T. ) ;
#19 = CALENDAR_DATE ( 2019, 7, 1 ) ;
#20 = APPROVAL ( #33, 'UNSPECIFIED' ) ;
#21 = DIRECTION ( 'NONE',  ( -0.0000000000000000000, -0.0000000000000000000, -1.000000000000000000 ) ) ;
#22 = APPROVAL_DATE_TIME ( #147, #61 ) ;
#23 = APPLICATION_CONTEXT ( 'configuration controlled 3d designs of mechanical parts and assemblies' ) ;
#24 = CYLINDRICAL_SURFACE ( 'NONE', #172, 7.500000000000000000 ) ;
#25 = CC_DESIGN_DATE_AND_TIME_ASSIGNMENT ( #159, #169, ( #103 ) ) ;
#26 = COORDINATED_UNIVERSAL_TIME_OFFSET ( 5, 0, .BEHIND. ) ;
#27 = APPROVAL_PERSON_ORGANIZATION ( #16, #109, #127 ) ;
#28 = CLOSED_SHELL ( 'NONE', ( #99, #32, #18, #6 ) ) ;
#29 = CALENDAR_DATE ( 2019, 7, 1 ) ;
#30 = CARTESIAN_POINT ( 'NONE',  ( 0.0000000000000000000, 0.0000000000000000000, -1.000000000000000000 ) ) ;
#31 = DIRECTION ( 'NONE',  ( 1.000000000000000000, 0.0000000000000000000, 0.0000000000000000000 ) ) ;
#32 = ADVANCED_FACE ( 'NONE', ( #114 ), #24, .T. ) ;
#33 = APPROVAL_STATUS ( 'not_yet_approved' ) ;
#34 = EDGE_CURVE ( 'NONE', #38, #175, #66, .T. ) ;
#35 = CARTESIAN_POINT ( 'NONE',  ( 0.0000000000000000000, 0.0000000000000000000, 0.0000000000000000000 ) ) ;
#36 = APPROVAL_STATUS ( 'not_yet_approved' ) ;
#37 = APPROVAL_ROLE ( '' ) ;
#38 = VERTEX_POINT ( 'NONE', #122 ) ;
#39 = DATE_TIME_ROLE ( 'creation_date' ) ;
#40 = CC_DESIGN_PERSON_AND_ORGANIZATION_ASSIGNMENT ( #67, #117, ( #41 ) ) ;
#41 = PRODUCT ( 'Web Model 45310_49641', 'Web Model 45310_49641', '', ( #171 ) ) ;
#42 = LOCAL_TIME ( 10, 43, 36.00000000000000000, #55 ) ;
#43 = AXIS2_PLACEMENT_3D ( 'NONE', #166, #85, #141 ) ;
#44 = CIRCLE ( 'NONE', #81, 7.500000000000000000 ) ;
#45 = CARTESIAN_POINT ( 'NONE',  ( 0.0000000000000000000, 0.0000000000000000000, 1.000000000000000000 ) ) ;
#46 = SECURITY_CLASSIFICATION_LEVEL ( 'unclassified' ) ;
#47 =( NAMED_UNIT ( * ) PLANE_ANGLE_UNIT ( ) SI_UNIT ( $, .RADIAN. ) );
#48 = CC_DESIGN_PERSON_AND_ORGANIZATION_ASSIGNMENT ( #90, #115, ( #137 ) ) ;
#49 = PERSON_AND_ORGANIZATION ( #51, #70 ) ;
#50 = APPLICATION_CONTEXT ( 'configuration controlled 3d designs of mechanical parts and assemblies' ) ;
#51 = PERSON ( 'UNSPECIFIED', 'UNSPECIFIED', 'UNSPECIFIED', ('UNSPECIFIED'), ('UNSPECIFIED'), ('UNSPECIFIED') ) ;
#52 = PERSON_AND_ORGANIZATION ( #51, #70 ) ;
#53 = CALENDAR_DATE ( 2019, 7, 1 ) ;
#54 = CC_DESIGN_APPROVAL ( #20, ( #137 ) ) ;
#55 = COORDINATED_UNIVERSAL_TIME_OFFSET ( 5, 0, .BEHIND. ) ;
#56 = AXIS2_PLACEMENT_3D ( 'NONE', #30, #98, #3 ) ;
#57 = CARTESIAN_POINT ( 'NONE',  ( 7.500000000000000000, 9.184850993605147900E-016, 1.000000000000000000 ) ) ;
#58 = COORDINATED_UNIVERSAL_TIME_OFFSET ( 5, 0, .BEHIND. ) ;
#59 = FACE_OUTER_BOUND ( 'NONE', #151, .T. ) ;
#60 = PLANE ( 'NONE',  #56 ) ;
#61 = APPROVAL ( #36, 'UNSPECIFIED' ) ;
#62 = APPROVAL_PERSON_ORGANIZATION ( #93, #20, #37 ) ;
#63 = CARTESIAN_POINT ( 'NONE',  ( -7.500000000000000000, 0.0000000000000000000, 1.000000000000000000 ) ) ;
#64 = PERSON_AND_ORGANIZATION_ROLE ( 'design_supplier' ) ;
#65 = COORDINATED_UNIVERSAL_TIME_OFFSET ( 5, 0, .BEHIND. ) ;
#66 = CIRCLE ( 'NONE', #161, 7.500000000000000000 ) ;
#67 = PERSON_AND_ORGANIZATION ( #51, #70 ) ;
#68 = PRODUCT_DEFINITION_SHAPE ( 'NONE', 'NONE',  #137 ) ;
#69 = ORIENTED_EDGE ( 'NONE', *, *, #135, .F. ) ;
#70 = ORGANIZATION ( 'UNSPECIFIED', 'UNSPECIFIED', '' ) ;
#71 = EDGE_CURVE ( 'NONE', #106, #136, #123, .T. ) ;
#72 = FACE_OUTER_BOUND ( 'NONE', #170, .T. ) ;
#73 = DIRECTION ( 'NONE',  ( -0.0000000000000000000, -0.0000000000000000000, -1.000000000000000000 ) ) ;
#74 = DIRECTION ( 'NONE',  ( -0.0000000000000000000, -0.0000000000000000000, -1.000000000000000000 ) ) ;
#75 = ORIENTED_EDGE ( 'NONE', *, *, #34, .T. ) ;
#76 = CARTESIAN_POINT ( 'NONE',  ( 0.0000000000000000000, 0.0000000000000000000, 1.000000000000000000 ) ) ;
#77 = DIRECTION ( 'NONE',  ( 1.000000000000000000, 0.0000000000000000000, 0.0000000000000000000 ) ) ;
#78 = LINE ( 'NONE', #63, #164 ) ;
#79 = DESIGN_CONTEXT ( 'detailed design', #50, 'design' ) ;
#80 = ORIENTED_EDGE ( 'NONE', *, *, #173, .F. ) ;
#81 = AXIS2_PLACEMENT_3D ( 'NONE', #142, #156, #77 ) ;
#82 = ORIENTED_EDGE ( 'NONE', *, *, #134, .F. ) ;
#83 = CC_DESIGN_DATE_AND_TIME_ASSIGNMENT ( #96, #39, ( #137 ) ) ;
#84 = DIRECTION ( 'NONE',  ( 0.0000000000000000000, 0.0000000000000000000, 1.000000000000000000 ) ) ;
#85 = DIRECTION ( 'NONE',  ( 0.0000000000000000000, 0.0000000000000000000, 1.000000000000000000 ) ) ;
#86 = DIRECTION ( 'NONE',  ( 1.000000000000000000, 0.0000000000000000000, 0.0000000000000000000 ) ) ;
#87 = APPLICATION_PROTOCOL_DEFINITION ( 'international standard', 'config_control_design', 1994, #50 ) ;
#88 = DIRECTION ( 'NONE',  ( 1.000000000000000000, 0.0000000000000000000, 0.0000000000000000000 ) ) ;
#89 = DIRECTION ( 'NONE',  ( 0.0000000000000000000, 0.0000000000000000000, 1.000000000000000000 ) ) ;
#90 = PERSON_AND_ORGANIZATION ( #51, #70 ) ;
#91 = LINE ( 'NONE', #57, #128 ) ;
#92 = AXIS2_PLACEMENT_3D ( 'NONE', #130, #104, #88 ) ;
#93 = PERSON_AND_ORGANIZATION ( #51, #70 ) ;
#94 = UNCERTAINTY_MEASURE_WITH_UNIT (LENGTH_MEASURE( 1.000000000000000100E-005 ), #145, 'distance_accuracy_value', 'NONE');
#95 =( GEOMETRIC_REPRESENTATION_CONTEXT ( 3 ) GLOBAL_UNCERTAINTY_ASSIGNED_CONTEXT ( ( #94 ) ) GLOBAL_UNIT_ASSIGNED_CONTEXT ( ( #145, #47, #154 ) ) REPRESENTATION_CONTEXT ( 'NONE', 'WORKASPACE' ) );
#96 = DATE_AND_TIME ( #19, #140 ) ;
#97 = APPROVAL_DATE_TIME ( #13, #20 ) ;
#98 = DIRECTION ( 'NONE',  ( 0.0000000000000000000, 0.0000000000000000000, 1.000000000000000000 ) ) ;
#99 = ADVANCED_FACE ( 'NONE', ( #59 ), #8, .T. ) ;
#100 = CALENDAR_DATE ( 2019, 7, 1 ) ;
#101 = FACE_OUTER_BOUND ( 'NONE', #116, .T. ) ;
#102 = PLANE ( 'NONE',  #119 ) ;
#103 = SECURITY_CLASSIFICATION ( '', '', #46 ) ;
#104 = DIRECTION ( 'NONE',  ( 0.0000000000000000000, 0.0000000000000000000, 1.000000000000000000 ) ) ;
#105 = PERSON_AND_ORGANIZATION_ROLE ( 'classification_officer' ) ;
#106 = VERTEX_POINT ( 'NONE', #17 ) ;
#107 = CALENDAR_DATE ( 2019, 7, 1 ) ;
#108 = ORIENTED_EDGE ( 'NONE', *, *, #135, .T. ) ;
#109 = APPROVAL ( #157, 'UNSPECIFIED' ) ;
#110 = EDGE_CURVE ( 'NONE', #136, #106, #44, .T. ) ;
#111 = LOCAL_TIME ( 10, 43, 36.00000000000000000, #118 ) ;
#112 = DIRECTION ( 'NONE',  ( -1.000000000000000000, 0.0000000000000000000, 0.0000000000000000000 ) ) ;
#113 = DIRECTION ( 'NONE',  ( 0.0000000000000000000, 0.0000000000000000000, 1.000000000000000000 ) ) ;
#114 = FACE_OUTER_BOUND ( 'NONE', #160, .T. ) ;
#115 = PERSON_AND_ORGANIZATION_ROLE ( 'creator' ) ;
#116 = EDGE_LOOP ( 'NONE', ( #108, #75 ) ) ;
#117 = PERSON_AND_ORGANIZATION_ROLE ( 'design_owner' ) ;
#118 = COORDINATED_UNIVERSAL_TIME_OFFSET ( 5, 0, .BEHIND. ) ;
#119 = AXIS2_PLACEMENT_3D ( 'NONE', #124, #84, #138 ) ;
#120 = PERSON_AND_ORGANIZATION ( #51, #70 ) ;
#121 = ORIENTED_EDGE ( 'NONE', *, *, #34, .F. ) ;
#122 = CARTESIAN_POINT ( 'NONE',  ( 7.500000000000000000, 9.184850993605147900E-016, 1.000000000000000000 ) ) ;
#123 = CIRCLE ( 'NONE', #43, 7.500000000000000000 ) ;
#124 = CARTESIAN_POINT ( 'NONE',  ( 0.0000000000000000000, 0.0000000000000000000, 1.000000000000000000 ) ) ;
#125 = LOCAL_TIME ( 10, 43, 36.00000000000000000, #65 ) ;
#126 = PERSON_AND_ORGANIZATION_ROLE ( 'creator' ) ;
#127 = APPROVAL_ROLE ( '' ) ;
#128 = VECTOR ( 'NONE', #74, 1000.000000000000000 ) ;
#129 = AXIS2_PLACEMENT_3D ( 'NONE', #35, #89, #86 ) ;
#130 = CARTESIAN_POINT ( 'NONE',  ( 0.0000000000000000000, 0.0000000000000000000, 1.000000000000000000 ) ) ;
#131 = AXIS2_PLACEMENT_3D ( 'NONE', #45, #2, #112 ) ;
#132 = LOCAL_TIME ( 10, 43, 36.00000000000000000, #58 ) ;
#133 = ORIENTED_EDGE ( 'NONE', *, *, #71, .F. ) ;
#134 = EDGE_CURVE ( 'NONE', #38, #136, #91, .T. ) ;
#135 = EDGE_CURVE ( 'NONE', #175, #38, #174, .T. ) ;
#136 = VERTEX_POINT ( 'NONE', #10 ) ;
#137 = PRODUCT_DEFINITION ( 'UNKNOWN', '', #1, #79 ) ;
#138 = DIRECTION ( 'NONE',  ( 1.000000000000000000, 0.0000000000000000000, -0.0000000000000000000 ) ) ;
#139 = DIRECTION ( 'NONE',  ( -1.000000000000000000, 0.0000000000000000000, 0.0000000000000000000 ) ) ;
#140 = LOCAL_TIME ( 10, 43, 36.00000000000000000, #26 ) ;
#141 = DIRECTION ( 'NONE',  ( 1.000000000000000000, 0.0000000000000000000, 0.0000000000000000000 ) ) ;
#142 = CARTESIAN_POINT ( 'NONE',  ( 0.0000000000000000000, 0.0000000000000000000, -1.000000000000000000 ) ) ;
#143 = CC_DESIGN_APPROVAL ( #61, ( #1 ) ) ;
#144 = APPROVAL_DATE_TIME ( #155, #109 ) ;
#145 =( LENGTH_UNIT ( ) NAMED_UNIT ( * ) SI_UNIT ( .MILLI., .METRE. ) );
#146 = MANIFOLD_SOLID_BREP ( 'Boss-Extrude1', #28 ) ;
#147 = DATE_AND_TIME ( #29, #132 ) ;
#148 = ORIENTED_EDGE ( 'NONE', *, *, #71, .T. ) ;
#149 = CC_DESIGN_SECURITY_CLASSIFICATION ( #103, ( #1 ) ) ;
#150 = SHAPE_DEFINITION_REPRESENTATION ( #68, #163 ) ;
#151 = EDGE_LOOP ( 'NONE', ( #121, #11, #14, #80 ) ) ;
#152 = CARTESIAN_POINT ( 'NONE',  ( 0.0000000000000000000, 0.0000000000000000000, 1.000000000000000000 ) ) ;
#153 = CARTESIAN_POINT ( 'NONE',  ( -7.500000000000000000, 0.0000000000000000000, 1.000000000000000000 ) ) ;
#154 =( NAMED_UNIT ( * ) SI_UNIT ( $, .STERADIAN. ) SOLID_ANGLE_UNIT ( ) );
#155 = DATE_AND_TIME ( #107, #111 ) ;
#156 = DIRECTION ( 'NONE',  ( 0.0000000000000000000, 0.0000000000000000000, 1.000000000000000000 ) ) ;
#157 = APPROVAL_STATUS ( 'not_yet_approved' ) ;
#158 = CC_DESIGN_PERSON_AND_ORGANIZATION_ASSIGNMENT ( #120, #64, ( #1 ) ) ;
#159 = DATE_AND_TIME ( #53, #125 ) ;
#160 = EDGE_LOOP ( 'NONE', ( #82, #69, #9, #148 ) ) ;
#161 = AXIS2_PLACEMENT_3D ( 'NONE', #76, #113, #31 ) ;
#162 = APPROVAL_PERSON_ORGANIZATION ( #167, #61, #7 ) ;
#163 = ADVANCED_BREP_SHAPE_REPRESENTATION ( 'Web Model 45310_49641', ( #146, #129 ), #95 ) ;
#164 = VECTOR ( 'NONE', #21, 1000.000000000000000 ) ;
#165 = PRODUCT_RELATED_PRODUCT_CATEGORY ( 'detail', '', ( #41 ) ) ;
#166 = CARTESIAN_POINT ( 'NONE',  ( 0.0000000000000000000, 0.0000000000000000000, -1.000000000000000000 ) ) ;
#167 = PERSON_AND_ORGANIZATION ( #51, #70 ) ;
#168 = APPLICATION_PROTOCOL_DEFINITION ( 'international standard', 'config_control_design', 1994, #23 ) ;
#169 = DATE_TIME_ROLE ( 'classification_date' ) ;
#170 = EDGE_LOOP ( 'NONE', ( #133, #4 ) ) ;
#171 = MECHANICAL_CONTEXT ( 'NONE', #23, 'mechanical' ) ;
#172 = AXIS2_PLACEMENT_3D ( 'NONE', #152, #73, #139 ) ;
#173 = EDGE_CURVE ( 'NONE', #175, #106, #78, .T. ) ;
#174 = CIRCLE ( 'NONE', #92, 7.500000000000000000 ) ;
#175 = VERTEX_POINT ( 'NONE', #153 ) ;
ENDSEC;
END-ISO-10303-21;
