ISO-10303-21;
HEADER;
FILE_DESCRIPTION (( 'STEP AP203' ),
    '1' );
FILE_NAME ('4280-E0W.STEP',
    '2015-05-29T14:21:05',
    ( 'admin' ),
    ( '' ),
    'SwSTEP 2.0',
    'SolidWorks 2014',
    '' );
FILE_SCHEMA (( 'CONFIG_CONTROL_DESIGN' ));
ENDSEC;

DATA;
#1 = ORIENTED_EDGE ( 'NONE', *, *, #267, .F. ) ;
#2 = CIRCLE ( 'NONE', #293, 12.49263663961074600 ) ;
#3 = APPLICATION_CONTEXT ( 'configuration controlled 3d designs of mechanical parts and assemblies' ) ;
#4 = DIRECTION ( 'NONE',  ( -1.000000000000000000, -0.0000000000000000000, -0.0000000000000000000 ) ) ;
#5 = AXIS2_PLACEMENT_3D ( 'NONE', #10, #275, #109 ) ;
#6 = CLOSED_SHELL ( 'NONE', ( #127, #263, #41, #259, #60, #295, #91, #150, #156 ) ) ;
#7 = DIRECTION ( 'NONE',  ( 0.0000000000000000000, 0.0000000000000000000, 1.000000000000000000 ) ) ;
#8 = CIRCLE ( 'NONE', #238, 12.69999999999999900 ) ;
#9 = PERSON_AND_ORGANIZATION_ROLE ( 'classification_officer' ) ;
#10 = CARTESIAN_POINT ( 'NONE',  ( -1.150000000000008600, 0.0000000000000000000, 0.0000000000000000000 ) ) ;
#11 = DATE_TIME_ROLE ( 'classification_date' ) ;
#12 = DIRECTION ( 'NONE',  ( 1.000000000000000000, 0.0000000000000000000, 0.0000000000000000000 ) ) ;
#13 = CC_DESIGN_DATE_AND_TIME_ASSIGNMENT ( #252, #168, ( #177 ) ) ;
#14 = CARTESIAN_POINT ( 'NONE',  ( -2.649999999999994600, 0.0000000000000000000, 12.69999999999999900 ) ) ;
#15 = APPLICATION_PROTOCOL_DEFINITION ( 'international standard', 'config_control_design', 1994, #249 ) ;
#16 = PLANE ( 'NONE',  #264 ) ;
#17 = AXIS2_PLACEMENT_3D ( 'NONE', #145, #253, #31 ) ;
#18 = DIRECTION ( 'NONE',  ( 0.0000000000000000000, 0.0000000000000000000, 1.000000000000000000 ) ) ;
#19 = AXIS2_PLACEMENT_3D ( 'NONE', #260, #251, #243 ) ;
#20 = CARTESIAN_POINT ( 'NONE',  ( -2.899999999999999900, 1.539993349927796300E-015, 12.44999999999999600 ) ) ;
#21 = CARTESIAN_POINT ( 'NONE',  ( -20.09997084266370800, 0.0000000000000000000, 0.0000000000000000000 ) ) ;
#22 = CC_DESIGN_DATE_AND_TIME_ASSIGNMENT ( #118, #11, ( #192 ) ) ;
#23 = EDGE_CURVE ( 'NONE', #274, #128, #88, .T. ) ;
#24 = CARTESIAN_POINT ( 'NONE',  ( -1.150000000000008600, 1.555301434917138400E-015, -12.69999999999999900 ) ) ;
#25 = CARTESIAN_POINT ( 'NONE',  ( -2.899999999999999900, 1.555301434917138400E-015, -12.69999999999999900 ) ) ;
#26 = ORIENTED_EDGE ( 'NONE', *, *, #64, .F. ) ;
#27 = FACE_OUTER_BOUND ( 'NONE', #193, .T. ) ;
#28 = LINE ( 'NONE', #190, #151 ) ;
#29 = CARTESIAN_POINT ( 'NONE',  ( -0.7648287005531905200, 0.0000000000000000000, 0.0000000000000000000 ) ) ;
#30 = DIRECTION ( 'NONE',  ( -1.000000000000000000, -0.0000000000000000000, -0.0000000000000000000 ) ) ;
#31 = DIRECTION ( 'NONE',  ( 0.0000000000000000000, -1.224646799147353200E-016, 1.000000000000000000 ) ) ;
#32 = DIRECTION ( 'NONE',  ( -1.000000000000000000, -0.0000000000000000000, -0.0000000000000000000 ) ) ;
#33 = CARTESIAN_POINT ( 'NONE',  ( -2.899999999999999900, 0.0000000000000000000, -12.44999999999999600 ) ) ;
#34 = DIRECTION ( 'NONE',  ( -1.000000000000000000, -0.0000000000000000000, -0.0000000000000000000 ) ) ;
#35 = APPROVAL_STATUS ( 'not_yet_approved' ) ;
#36 = ORIENTED_EDGE ( 'NONE', *, *, #45, .F. ) ;
#37 = SECURITY_CLASSIFICATION_LEVEL ( 'unclassified' ) ;
#38 = DIRECTION ( 'NONE',  ( 1.000000000000000000, 0.0000000000000000000, 0.0000000000000000000 ) ) ;
#39 = DIRECTION ( 'NONE',  ( 0.0000000000000000000, 0.0000000000000000000, 1.000000000000000000 ) ) ;
#40 = ORIENTED_EDGE ( 'NONE', *, *, #194, .T. ) ;
#41 = ADVANCED_FACE ( 'NONE', ( #57 ), #83, .T. ) ;
#42 = CONICAL_SURFACE ( 'NONE', #203, 12.69999999999999900, 0.4938677618649895400 ) ;
#43 = AXIS2_PLACEMENT_3D ( 'NONE', #52, #7, #131 ) ;
#44 = AXIS2_PLACEMENT_3D ( 'NONE', #284, #73, #180 ) ;
#45 = EDGE_CURVE ( 'NONE', #128, #216, #59, .T. ) ;
#46 = CARTESIAN_POINT ( 'NONE',  ( -1.150000000000008600, 0.0000000000000000000, 0.0000000000000000000 ) ) ;
#47 = CARTESIAN_POINT ( 'NONE',  ( -2.899999999999999900, 0.0000000000000000000, -12.44999999999999600 ) ) ;
#48 = DIRECTION ( 'NONE',  ( 0.0000000000000000000, -1.000000000000000000, 0.0000000000000000000 ) ) ;
#49 = CC_DESIGN_PERSON_AND_ORGANIZATION_ASSIGNMENT ( #212, #86, ( #273 ) ) ;
#50 = DIRECTION ( 'NONE',  ( -0.8805059946285043200, 0.0000000000000000000, 0.4740350128664215200 ) ) ;
#51 = APPROVAL_STATUS ( 'not_yet_approved' ) ;
#52 = CARTESIAN_POINT ( 'NONE',  ( 0.0000000000000000000, 0.0000000000000000000, 0.0000000000000000000 ) ) ;
#53 = ORIENTED_EDGE ( 'NONE', *, *, #206, .T. ) ;
#54 = ORIENTED_EDGE ( 'NONE', *, *, #104, .T. ) ;
#55 = DIRECTION ( 'NONE',  ( -1.000000000000000000, -0.0000000000000000000, -0.0000000000000000000 ) ) ;
#56 = CYLINDRICAL_SURFACE ( 'NONE', #19, 12.69999999999999900 ) ;
#57 = FACE_OUTER_BOUND ( 'NONE', #268, .T. ) ;
#58 = CC_DESIGN_PERSON_AND_ORGANIZATION_ASSIGNMENT ( #142, #154, ( #273 ) ) ;
#59 = CIRCLE ( 'NONE', #250, 12.69999999999999900 ) ;
#60 = ADVANCED_FACE ( 'NONE', ( #65 ), #16, .F. ) ;
#61 = VECTOR ( 'NONE', #266, 1000.000000000000200 ) ;
#62 = LINE ( 'NONE', #47, #162 ) ;
#63 = PRODUCT_RELATED_PRODUCT_CATEGORY ( 'detail', '', ( #215 ) ) ;
#64 = EDGE_CURVE ( 'NONE', #90, #216, #72, .T. ) ;
#65 = FACE_OUTER_BOUND ( 'NONE', #244, .T. ) ;
#66 = TOROIDAL_SURFACE ( 'NONE', #257, 0.03662289747070109800, 22.99999999999999300 ) ;
#67 = PERSON_AND_ORGANIZATION ( #184, #205 ) ;
#68 = PERSON_AND_ORGANIZATION_ROLE ( 'design_owner' ) ;
#69 = CARTESIAN_POINT ( 'NONE',  ( -2.899999999999999900, 1.524685264938454300E-015, 12.44999999999999600 ) ) ;
#70 = FACE_OUTER_BOUND ( 'NONE', #80, .T. ) ;
#71 = CIRCLE ( 'NONE', #44, 12.44999999999999600 ) ;
#72 = LINE ( 'NONE', #161, #157 ) ;
#73 = DIRECTION ( 'NONE',  ( -1.000000000000000000, -0.0000000000000000000, -0.0000000000000000000 ) ) ;
#74 = ORIENTED_EDGE ( 'NONE', *, *, #137, .T. ) ;
#75 = EDGE_LOOP ( 'NONE', ( #176, #54, #138, #74 ) ) ;
#76 = APPROVAL_PERSON_ORGANIZATION ( #67, #235, #160 ) ;
#77 = DIRECTION ( 'NONE',  ( 0.0000000000000000000, 0.0000000000000000000, 1.000000000000000000 ) ) ;
#78 = CARTESIAN_POINT ( 'NONE',  ( -2.899999999999999900, 0.0000000000000000000, 0.0000000000000000000 ) ) ;
#79 = CALENDAR_DATE ( 2015, 29, 5 ) ;
#80 = EDGE_LOOP ( 'NONE', ( #172, #113, #210 ) ) ;
#81 = ADVANCED_BREP_SHAPE_REPRESENTATION ( '4280-E0W', ( #283, #43 ), #276 ) ;
#82 = ORIENTED_EDGE ( 'NONE', *, *, #112, .F. ) ;
#83 = TOROIDAL_SURFACE ( 'NONE', #173, 0.03662289747070109800, 22.99999999999999300 ) ;
#84 = CIRCLE ( 'NONE', #204, 12.44999999999999600 ) ;
#85 = CONICAL_SURFACE ( 'NONE', #278, 12.44999999999999600, 0.7853981633974447300 ) ;
#86 = PERSON_AND_ORGANIZATION_ROLE ( 'creator' ) ;
#87 = CARTESIAN_POINT ( 'NONE',  ( -2.649999999999994600, 1.555301434917138400E-015, -12.69999999999999900 ) ) ;
#88 = LINE ( 'NONE', #25, #89 ) ;
#89 = VECTOR ( 'NONE', #213, 1000.000000000000000 ) ;
#90 = VERTEX_POINT ( 'NONE', #148 ) ;
#91 = ADVANCED_FACE ( 'NONE', ( #70 ), #66, .T. ) ;
#92 = ORIENTED_EDGE ( 'NONE', *, *, #112, .T. ) ;
#93 = COORDINATED_UNIVERSAL_TIME_OFFSET ( 5, 0, .BEHIND. ) ;
#94 = DIRECTION ( 'NONE',  ( 0.0000000000000000000, 0.0000000000000000000, 1.000000000000000000 ) ) ;
#95 = APPROVAL_STATUS ( 'not_yet_approved' ) ;
#96 = EDGE_CURVE ( 'NONE', #191, #155, #270, .T. ) ;
#97 = MECHANICAL_CONTEXT ( 'NONE', #249, 'mechanical' ) ;
#98 = CARTESIAN_POINT ( 'NONE',  ( -2.649999999999994600, 0.0000000000000000000, 0.0000000000000000000 ) ) ;
#99 = ORIENTED_EDGE ( 'NONE', *, *, #152, .F. ) ;
#100 = CARTESIAN_POINT ( 'NONE',  ( 2.899999999999999900, 0.0000000000000000000, 0.0000000000000000000 ) ) ;
#101 = DIRECTION ( 'NONE',  ( 0.0000000000000000000, 0.0000000000000000000, -1.000000000000000000 ) ) ;
#102 = COORDINATED_UNIVERSAL_TIME_OFFSET ( 5, 0, .BEHIND. ) ;
#103 = FACE_OUTER_BOUND ( 'NONE', #132, .T. ) ;
#104 = EDGE_CURVE ( 'NONE', #274, #90, #8, .T. ) ;
#105 = CARTESIAN_POINT ( 'NONE',  ( -20.09997084266370800, 0.0000000000000000000, 0.0000000000000000000 ) ) ;
#106 = ORIENTED_EDGE ( 'NONE', *, *, #104, .F. ) ;
#107 = VERTEX_POINT ( 'NONE', #33 ) ;
#108 = APPLICATION_PROTOCOL_DEFINITION ( 'international standard', 'config_control_design', 1994, #3 ) ;
#109 = DIRECTION ( 'NONE',  ( 0.0000000000000000000, 0.0000000000000000000, 1.000000000000000000 ) ) ;
#110 = DIRECTION ( 'NONE',  ( 0.0000000000000000000, 0.0000000000000000000, 1.000000000000000000 ) ) ;
#111 = ORIENTED_EDGE ( 'NONE', *, *, #217, .T. ) ;
#112 = EDGE_CURVE ( 'NONE', #171, #216, #133, .T. ) ;
#113 = ORIENTED_EDGE ( 'NONE', *, *, #96, .T. ) ;
#114 = ORIENTED_EDGE ( 'NONE', *, *, #96, .F. ) ;
#115 = ORIENTED_EDGE ( 'NONE', *, *, #297, .F. ) ;
#116 = ORIENTED_EDGE ( 'NONE', *, *, #206, .F. ) ;
#117 = AXIS2_PLACEMENT_3D ( 'NONE', #248, #55, #220 ) ;
#118 = DATE_AND_TIME ( #285, #292 ) ;
#119 = DIRECTION ( 'NONE',  ( 1.000000000000000000, 0.0000000000000000000, 0.0000000000000000000 ) ) ;
#120 = DIRECTION ( 'NONE',  ( 0.7071067811865500200, 8.659560562354903300E-017, 0.7071067811865451300 ) ) ;
#121 = ORIENTED_EDGE ( 'NONE', *, *, #223, .T. ) ;
#122 = LINE ( 'NONE', #272, #61 ) ;
#123 = CARTESIAN_POINT ( 'NONE',  ( -2.899999999999999900, 0.0000000000000000000, 0.0000000000000000000 ) ) ;
#124 = FACE_OUTER_BOUND ( 'NONE', #75, .T. ) ;
#125 = CYLINDRICAL_SURFACE ( 'NONE', #117, 12.69999999999999900 ) ;
#126 = CIRCLE ( 'NONE', #287, 12.49263663961074600 ) ;
#127 = ADVANCED_FACE ( 'NONE', ( #103 ), #189, .T. ) ;
#128 = VERTEX_POINT ( 'NONE', #87 ) ;
#129 = CONICAL_SURFACE ( 'NONE', #5, 12.69999999999999900, 0.4938677618649895400 ) ;
#130 = CC_DESIGN_PERSON_AND_ORGANIZATION_ASSIGNMENT ( #240, #256, ( #177 ) ) ;
#131 = DIRECTION ( 'NONE',  ( 1.000000000000000000, 0.0000000000000000000, 0.0000000000000000000 ) ) ;
#132 = EDGE_LOOP ( 'NONE', ( #116, #92, #36, #158 ) ) ;
#133 = LINE ( 'NONE', #69, #229 ) ;
#134 = CALENDAR_DATE ( 2015, 29, 5 ) ;
#135 = DIRECTION ( 'NONE',  ( 0.0000000000000000000, 0.0000000000000000000, -1.000000000000000000 ) ) ;
#136 = ORIENTED_EDGE ( 'NONE', *, *, #289, .T. ) ;
#137 = EDGE_CURVE ( 'NONE', #216, #128, #195, .T. ) ;
#138 = ORIENTED_EDGE ( 'NONE', *, *, #64, .T. ) ;
#139 = CARTESIAN_POINT ( 'NONE',  ( -20.09997084266370800, 0.0000000000000000000, 0.03662289747070109800 ) ) ;
#140 = CIRCLE ( 'NONE', #170, 12.69999999999999900 ) ;
#141 = DIRECTION ( 'NONE',  ( 0.0000000000000000000, 0.0000000000000000000, -1.000000000000000000 ) ) ;
#142 = PERSON_AND_ORGANIZATION ( #184, #205 ) ;
#143 = CARTESIAN_POINT ( 'NONE',  ( -0.7648287005531905200, 1.529906747361024600E-015, -12.49263663961074400 ) ) ;
#144 = APPROVAL_ROLE ( '' ) ;
#145 = CARTESIAN_POINT ( 'NONE',  ( -20.09997084266370800, 4.485011416299579400E-018, -0.03662289747070109800 ) ) ;
#146 = ORIENTED_EDGE ( 'NONE', *, *, #223, .F. ) ;
#147 = AXIS2_PLACEMENT_3D ( 'NONE', #123, #265, #242 ) ;
#148 = CARTESIAN_POINT ( 'NONE',  ( -1.150000000000008600, 0.0000000000000000000, 12.69999999999999900 ) ) ;
#149 = DIRECTION ( 'NONE',  ( 1.000000000000000000, 0.0000000000000000000, 0.0000000000000000000 ) ) ;
#150 = ADVANCED_FACE ( 'NONE', ( #199 ), #42, .T. ) ;
#151 = VECTOR ( 'NONE', #50, 1000.000000000000200 ) ;
#152 = EDGE_CURVE ( 'NONE', #155, #202, #126, .T. ) ;
#153 = DIRECTION ( 'NONE',  ( 0.0000000000000000000, 0.0000000000000000000, -1.000000000000000000 ) ) ;
#154 = PERSON_AND_ORGANIZATION_ROLE ( 'design_supplier' ) ;
#155 = VERTEX_POINT ( 'NONE', #182 ) ;
#156 = ADVANCED_FACE ( 'NONE', ( #27 ), #85, .T. ) ;
#157 = VECTOR ( 'NONE', #4, 1000.000000000000000 ) ;
#158 = ORIENTED_EDGE ( 'NONE', *, *, #289, .F. ) ;
#159 = DIRECTION ( 'NONE',  ( 0.0000000000000000000, 0.0000000000000000000, 1.000000000000000000 ) ) ;
#160 = APPROVAL_ROLE ( '' ) ;
#161 = CARTESIAN_POINT ( 'NONE',  ( -2.899999999999999900, 0.0000000000000000000, 12.69999999999999900 ) ) ;
#162 = VECTOR ( 'NONE', #246, 1000.000000000000100 ) ;
#163 = DIRECTION ( 'NONE',  ( 0.0000000000000000000, 0.0000000000000000000, -1.000000000000000000 ) ) ;
#164 = CC_DESIGN_SECURITY_CLASSIFICATION ( #192, ( #273 ) ) ;
#165 = FACE_OUTER_BOUND ( 'NONE', #179, .T. ) ;
#166 = ORIENTED_EDGE ( 'NONE', *, *, #297, .T. ) ;
#167 = CIRCLE ( 'NONE', #17, 22.99999999999999300 ) ;
#168 = DATE_TIME_ROLE ( 'creation_date' ) ;
#169 = ORIENTED_EDGE ( 'NONE', *, *, #267, .T. ) ;
#170 = AXIS2_PLACEMENT_3D ( 'NONE', #286, #291, #77 ) ;
#171 = VERTEX_POINT ( 'NONE', #20 ) ;
#172 = ORIENTED_EDGE ( 'NONE', *, *, #217, .F. ) ;
#173 = AXIS2_PLACEMENT_3D ( 'NONE', #21, #178, #18 ) ;
#174 = FACE_OUTER_BOUND ( 'NONE', #298, .T. ) ;
#175 = EDGE_CURVE ( 'NONE', #107, #171, #84, .T. ) ;
#176 = ORIENTED_EDGE ( 'NONE', *, *, #23, .F. ) ;
#177 = PRODUCT_DEFINITION ( 'UNKNOWN', '', #273, #207 ) ;
#178 = DIRECTION ( 'NONE',  ( -1.000000000000000000, -0.0000000000000000000, -0.0000000000000000000 ) ) ;
#179 = EDGE_LOOP ( 'NONE', ( #169, #232, #181, #26 ) ) ;
#180 = DIRECTION ( 'NONE',  ( 0.0000000000000000000, 0.0000000000000000000, -1.000000000000000000 ) ) ;
#181 = ORIENTED_EDGE ( 'NONE', *, *, #45, .T. ) ;
#182 = CARTESIAN_POINT ( 'NONE',  ( -0.7648287005531905200, 0.0000000000000000000, 12.49263663961074400 ) ) ;
#183 = APPROVAL ( #35, 'UNSPECIFIED' ) ;
#184 = PERSON ( 'UNSPECIFIED', 'UNSPECIFIED', 'UNSPECIFIED', ('UNSPECIFIED'), ('UNSPECIFIED'), ('UNSPECIFIED') ) ;
#185 = DIRECTION ( 'NONE',  ( 0.0000000000000000000, 0.0000000000000000000, 1.000000000000000000 ) ) ;
#186 = PERSON_AND_ORGANIZATION ( #184, #205 ) ;
#187 = APPROVAL ( #51, 'UNSPECIFIED' ) ;
#188 = PRODUCT_DEFINITION_SHAPE ( 'NONE', 'NONE',  #177 ) ;
#189 = CONICAL_SURFACE ( 'NONE', #147, 12.44999999999999600, 0.7853981633974447300 ) ;
#190 = CARTESIAN_POINT ( 'NONE',  ( -1.150000000000008600, 0.0000000000000000000, 12.69999999999999900 ) ) ;
#191 = VERTEX_POINT ( 'NONE', #100 ) ;
#192 = SECURITY_CLASSIFICATION ( '', '', #37 ) ;
#193 = EDGE_LOOP ( 'NONE', ( #82, #255, #136, #219 ) ) ;
#194 = EDGE_CURVE ( 'NONE', #202, #155, #2, .T. ) ;
#195 = CIRCLE ( 'NONE', #201, 12.69999999999999900 ) ;
#196 = CARTESIAN_POINT ( 'NONE',  ( -2.899999999999999900, 0.0000000000000000000, 0.0000000000000000000 ) ) ;
#197 = CARTESIAN_POINT ( 'NONE',  ( -2.649999999999994600, 0.0000000000000000000, 0.0000000000000000000 ) ) ;
#198 = DIRECTION ( 'NONE',  ( 0.0000000000000000000, 0.0000000000000000000, -1.000000000000000000 ) ) ;
#199 = FACE_OUTER_BOUND ( 'NONE', #209, .T. ) ;
#200 = APPROVAL_ROLE ( '' ) ;
#201 = AXIS2_PLACEMENT_3D ( 'NONE', #197, #296, #153 ) ;
#202 = VERTEX_POINT ( 'NONE', #143 ) ;
#203 = AXIS2_PLACEMENT_3D ( 'NONE', #46, #30, #159 ) ;
#204 = AXIS2_PLACEMENT_3D ( 'NONE', #224, #34, #141 ) ;
#205 = ORGANIZATION ( 'UNSPECIFIED', 'UNSPECIFIED', '' ) ;
#206 = EDGE_CURVE ( 'NONE', #171, #107, #71, .T. ) ;
#207 = DESIGN_CONTEXT ( 'detailed design', #3, 'design' ) ;
#208 = DIRECTION ( 'NONE',  ( 1.000000000000000000, 0.0000000000000000000, 0.0000000000000000000 ) ) ;
#209 = EDGE_LOOP ( 'NONE', ( #115, #99, #121, #106 ) ) ;
#210 = ORIENTED_EDGE ( 'NONE', *, *, #152, .T. ) ;
#211 = SHAPE_DEFINITION_REPRESENTATION ( #188, #81 ) ;
#212 = PERSON_AND_ORGANIZATION ( #184, #205 ) ;
#213 = DIRECTION ( 'NONE',  ( -1.000000000000000000, -0.0000000000000000000, -0.0000000000000000000 ) ) ;
#214 = CC_DESIGN_PERSON_AND_ORGANIZATION_ASSIGNMENT ( #218, #68, ( #215 ) ) ;
#215 = PRODUCT ( '4280-E0W', '4280-E0W', '', ( #97 ) ) ;
#216 = VERTEX_POINT ( 'NONE', #14 ) ;
#217 = EDGE_CURVE ( 'NONE', #191, #202, #167, .T. ) ;
#218 = PERSON_AND_ORGANIZATION ( #184, #205 ) ;
#219 = ORIENTED_EDGE ( 'NONE', *, *, #137, .F. ) ;
#220 = DIRECTION ( 'NONE',  ( 0.0000000000000000000, 0.0000000000000000000, 1.000000000000000000 ) ) ;
#221 = PERSON_AND_ORGANIZATION ( #184, #205 ) ;
#222 = APPROVAL_PERSON_ORGANIZATION ( #221, #187, #200 ) ;
#223 = EDGE_CURVE ( 'NONE', #155, #90, #28, .T. ) ;
#224 = CARTESIAN_POINT ( 'NONE',  ( -2.899999999999999900, 0.0000000000000000000, 0.0000000000000000000 ) ) ;
#225 = CC_DESIGN_PERSON_AND_ORGANIZATION_ASSIGNMENT ( #186, #9, ( #192 ) ) ;
#226 = COORDINATED_UNIVERSAL_TIME_OFFSET ( 5, 0, .BEHIND. ) ;
#227 = AXIS2_PLACEMENT_3D ( 'NONE', #139, #48, #198 ) ;
#228 = CC_DESIGN_APPROVAL ( #183, ( #273 ) ) ;
#229 = VECTOR ( 'NONE', #120, 1000.000000000000100 ) ;
#230 = LOCAL_TIME ( 10, 21, 5.000000000000000000, #226 ) ;
#231 = CALENDAR_DATE ( 2015, 29, 5 ) ;
#232 = ORIENTED_EDGE ( 'NONE', *, *, #23, .T. ) ;
#233 = LOCAL_TIME ( 10, 21, 5.000000000000000000, #102 ) ;
#234 = DATE_AND_TIME ( #231, #230 ) ;
#235 = APPROVAL ( #95, 'UNSPECIFIED' ) ;
#236 = ORIENTED_EDGE ( 'NONE', *, *, #194, .F. ) ;
#237 = APPROVAL_DATE_TIME ( #234, #187 ) ;
#238 = AXIS2_PLACEMENT_3D ( 'NONE', #239, #269, #110 ) ;
#239 = CARTESIAN_POINT ( 'NONE',  ( -1.150000000000008600, 0.0000000000000000000, 0.0000000000000000000 ) ) ;
#240 = PERSON_AND_ORGANIZATION ( #184, #205 ) ;
#241 = COORDINATED_UNIVERSAL_TIME_OFFSET ( 5, 0, .BEHIND. ) ;
#242 = DIRECTION ( 'NONE',  ( 0.0000000000000000000, 0.0000000000000000000, -1.000000000000000000 ) ) ;
#243 = DIRECTION ( 'NONE',  ( 0.0000000000000000000, 0.0000000000000000000, 1.000000000000000000 ) ) ;
#244 = EDGE_LOOP ( 'NONE', ( #254, #53 ) ) ;
#245 = LOCAL_TIME ( 10, 21, 5.000000000000000000, #241 ) ;
#246 = DIRECTION ( 'NONE',  ( 0.7071067811865500200, 0.0000000000000000000, -0.7071067811865451300 ) ) ;
#247 = CALENDAR_DATE ( 2015, 29, 5 ) ;
#248 = CARTESIAN_POINT ( 'NONE',  ( -2.899999999999999900, 0.0000000000000000000, 0.0000000000000000000 ) ) ;
#249 = APPLICATION_CONTEXT ( 'configuration controlled 3d designs of mechanical parts and assemblies' ) ;
#250 = AXIS2_PLACEMENT_3D ( 'NONE', #98, #119, #163 ) ;
#251 = DIRECTION ( 'NONE',  ( -1.000000000000000000, -0.0000000000000000000, -0.0000000000000000000 ) ) ;
#252 = DATE_AND_TIME ( #247, #245 ) ;
#253 = DIRECTION ( 'NONE',  ( -0.0000000000000000000, 1.000000000000000000, 1.224646799147353200E-016 ) ) ;
#254 = ORIENTED_EDGE ( 'NONE', *, *, #175, .T. ) ;
#255 = ORIENTED_EDGE ( 'NONE', *, *, #175, .F. ) ;
#256 = PERSON_AND_ORGANIZATION_ROLE ( 'creator' ) ;
#257 = AXIS2_PLACEMENT_3D ( 'NONE', #105, #32, #39 ) ;
#258 =( LENGTH_UNIT ( ) NAMED_UNIT ( * ) SI_UNIT ( .MILLI., .METRE. ) );
#259 = ADVANCED_FACE ( 'NONE', ( #165 ), #125, .T. ) ;
#260 = CARTESIAN_POINT ( 'NONE',  ( -2.899999999999999900, 0.0000000000000000000, 0.0000000000000000000 ) ) ;
#261 = PERSON_AND_ORGANIZATION ( #184, #205 ) ;
#262 = APPROVAL_DATE_TIME ( #301, #235 ) ;
#263 = ADVANCED_FACE ( 'NONE', ( #174 ), #129, .T. ) ;
#264 = AXIS2_PLACEMENT_3D ( 'NONE', #196, #149, #101 ) ;
#265 = DIRECTION ( 'NONE',  ( 1.000000000000000000, 0.0000000000000000000, 0.0000000000000000000 ) ) ;
#266 = DIRECTION ( 'NONE',  ( -0.8805059946285043200, 5.805254611906375700E-017, -0.4740350128664215200 ) ) ;
#267 = EDGE_CURVE ( 'NONE', #90, #274, #140, .T. ) ;
#268 = EDGE_LOOP ( 'NONE', ( #114, #111, #40 ) ) ;
#269 = DIRECTION ( 'NONE',  ( -1.000000000000000000, -0.0000000000000000000, -0.0000000000000000000 ) ) ;
#270 = CIRCLE ( 'NONE', #227, 22.99999999999999300 ) ;
#271 = APPROVAL_PERSON_ORGANIZATION ( #261, #183, #144 ) ;
#272 = CARTESIAN_POINT ( 'NONE',  ( -1.150000000000008600, 1.555301434917138400E-015, -12.69999999999999900 ) ) ;
#273 = PRODUCT_DEFINITION_FORMATION_WITH_SPECIFIED_SOURCE ( 'ANY', '', #215, .NOT_KNOWN. ) ;
#274 = VERTEX_POINT ( 'NONE', #24 ) ;
#275 = DIRECTION ( 'NONE',  ( -1.000000000000000000, -0.0000000000000000000, -0.0000000000000000000 ) ) ;
#276 =( GEOMETRIC_REPRESENTATION_CONTEXT ( 3 ) GLOBAL_UNCERTAINTY_ASSIGNED_CONTEXT ( ( #300 ) ) GLOBAL_UNIT_ASSIGNED_CONTEXT ( ( #258, #288, #277 ) ) REPRESENTATION_CONTEXT ( 'NONE', 'WORKASPACE' ) );
#277 =( NAMED_UNIT ( * ) SI_UNIT ( $, .STERADIAN. ) SOLID_ANGLE_UNIT ( ) );
#278 = AXIS2_PLACEMENT_3D ( 'NONE', #78, #38, #135 ) ;
#279 = LOCAL_TIME ( 10, 21, 5.000000000000000000, #93 ) ;
#280 = CARTESIAN_POINT ( 'NONE',  ( -0.7648287005531905200, 0.0000000000000000000, 0.0000000000000000000 ) ) ;
#281 = CC_DESIGN_APPROVAL ( #235, ( #192 ) ) ;
#282 = DATE_AND_TIME ( #134, #279 ) ;
#283 = MANIFOLD_SOLID_BREP ( '4280-001-1-solid1', #6 ) ;
#284 = CARTESIAN_POINT ( 'NONE',  ( -2.899999999999999900, 0.0000000000000000000, 0.0000000000000000000 ) ) ;
#285 = CALENDAR_DATE ( 2015, 29, 5 ) ;
#286 = CARTESIAN_POINT ( 'NONE',  ( -1.150000000000008600, 0.0000000000000000000, 0.0000000000000000000 ) ) ;
#287 = AXIS2_PLACEMENT_3D ( 'NONE', #29, #12, #185 ) ;
#288 =( NAMED_UNIT ( * ) PLANE_ANGLE_UNIT ( ) SI_UNIT ( $, .RADIAN. ) );
#289 = EDGE_CURVE ( 'NONE', #107, #128, #62, .T. ) ;
#290 = CC_DESIGN_APPROVAL ( #187, ( #177 ) ) ;
#291 = DIRECTION ( 'NONE',  ( -1.000000000000000000, -0.0000000000000000000, -0.0000000000000000000 ) ) ;
#292 = LOCAL_TIME ( 10, 21, 5.000000000000000000, #294 ) ;
#293 = AXIS2_PLACEMENT_3D ( 'NONE', #280, #208, #94 ) ;
#294 = COORDINATED_UNIVERSAL_TIME_OFFSET ( 5, 0, .BEHIND. ) ;
#295 = ADVANCED_FACE ( 'NONE', ( #124 ), #56, .T. ) ;
#296 = DIRECTION ( 'NONE',  ( 1.000000000000000000, 0.0000000000000000000, 0.0000000000000000000 ) ) ;
#297 = EDGE_CURVE ( 'NONE', #202, #274, #122, .T. ) ;
#298 = EDGE_LOOP ( 'NONE', ( #236, #166, #1, #146 ) ) ;
#299 = APPROVAL_DATE_TIME ( #282, #183 ) ;
#300 = UNCERTAINTY_MEASURE_WITH_UNIT (LENGTH_MEASURE( 1.000000000000000100E-005 ), #258, 'distance_accuracy_value', 'NONE');
#301 = DATE_AND_TIME ( #79, #233 ) ;
ENDSEC;
END-ISO-10303-21;
