ISO-10303-21;
HEADER;
FILE_DESCRIPTION (( 'STEP AP203' ),
    '1' );
FILE_NAME ('Web Model 48859_48859.step',
    '2017-03-01T20:58:03',
    ( '' ),
    ( '' ),
    'SwSTEP 2.0',
    'SolidWorks 2016',
    '' );
FILE_SCHEMA (( 'CONFIG_CONTROL_DESIGN' ));
ENDSEC;

DATA;
#1 = UNCERTAINTY_MEASURE_WITH_UNIT (LENGTH_MEASURE( 1.000000000000000100E-005 ), #48, 'distance_accuracy_value', 'NONE');
#2 = DIRECTION ( 'NONE',  ( 1.000000000000000000, 0.0000000000000000000, 0.0000000000000000000 ) ) ;
#3 = CC_DESIGN_PERSON_AND_ORGANIZATION_ASSIGNMENT ( #102, #66, ( #89 ) ) ;
#4 = PERSON_AND_ORGANIZATION_ROLE ( 'creator' ) ;
#5 = CC_DESIGN_PERSON_AND_ORGANIZATION_ASSIGNMENT ( #55, #169, ( #160 ) ) ;
#6 = APPROVAL_PERSON_ORGANIZATION ( #91, #167, #82 ) ;
#7 = PERSON_AND_ORGANIZATION ( #97, #149 ) ;
#8 = CARTESIAN_POINT ( 'NONE',  ( 0.0000000000000000000, 0.0000000000000000000, 0.0000000000000000000 ) ) ;
#9 = CARTESIAN_POINT ( 'NONE',  ( -101.5999999999999900, 0.0000000000000000000, 3.000000000000000000 ) ) ;
#10 = DIRECTION ( 'NONE',  ( -1.000000000000000000, 0.0000000000000000000, 0.0000000000000000000 ) ) ;
#11 = ORIENTED_EDGE ( 'NONE', *, *, #21, .T. ) ;
#12 = ORIENTED_EDGE ( 'NONE', *, *, #65, .F. ) ;
#13 = CARTESIAN_POINT ( 'NONE',  ( 0.0000000000000000000, 0.0000000000000000000, 3.000000000000000000 ) ) ;
#14 = CARTESIAN_POINT ( 'NONE',  ( 0.0000000000000000000, 0.0000000000000000000, 0.0000000000000000000 ) ) ;
#15 = PERSON_AND_ORGANIZATION_ROLE ( 'design_supplier' ) ;
#16 = CC_DESIGN_PERSON_AND_ORGANIZATION_ASSIGNMENT ( #105, #15, ( #160 ) ) ;
#17 = MECHANICAL_CONTEXT ( 'NONE', #131, 'mechanical' ) ;
#18 = DATE_TIME_ROLE ( 'classification_date' ) ;
#19 = APPROVAL_STATUS ( 'not_yet_approved' ) ;
#20 = FACE_OUTER_BOUND ( 'NONE', #71, .T. ) ;
#21 = EDGE_CURVE ( 'NONE', #67, #90, #84, .T. ) ;
#22 = ADVANCED_FACE ( 'NONE', ( #87 ), #47, .F. ) ;
#23 = LOCAL_TIME ( 15, 58, 3.000000000000000000, #161 ) ;
#24 = AXIS2_PLACEMENT_3D ( 'NONE', #141, #43, #46 ) ;
#25 = SECURITY_CLASSIFICATION ( '', '', #128 ) ;
#26 = PRODUCT_DEFINITION_SHAPE ( 'NONE', 'NONE',  #121 ) ;
#27 = FACE_OUTER_BOUND ( 'NONE', #145, .T. ) ;
#28 = CARTESIAN_POINT ( 'NONE',  ( 101.5999999999999900, 1.244241147933710700E-014, 0.0000000000000000000 ) ) ;
#29 = DIRECTION ( 'NONE',  ( -0.0000000000000000000, -0.0000000000000000000, -1.000000000000000000 ) ) ;
#30 = CALENDAR_DATE ( 2017, 1, 3 ) ;
#31 = FACE_OUTER_BOUND ( 'NONE', #172, .T. ) ;
#32 = APPROVAL_STATUS ( 'not_yet_approved' ) ;
#33 = ORIENTED_EDGE ( 'NONE', *, *, #83, .F. ) ;
#34 = DATE_TIME_ROLE ( 'creation_date' ) ;
#35 = MANIFOLD_SOLID_BREP ( 'Boss-Extrude1', #76 ) ;
#36 = LOCAL_TIME ( 15, 58, 3.000000000000000000, #117 ) ;
#37 = LOCAL_TIME ( 15, 58, 3.000000000000000000, #137 ) ;
#38 = AXIS2_PLACEMENT_3D ( 'NONE', #14, #77, #2 ) ;
#39 = CC_DESIGN_PERSON_AND_ORGANIZATION_ASSIGNMENT ( #88, #144, ( #25 ) ) ;
#40 = AXIS2_PLACEMENT_3D ( 'NONE', #13, #112, #95 ) ;
#41 = CIRCLE ( 'NONE', #24, 101.5999999999999900 ) ;
#42 = VECTOR ( 'NONE', #108, 1000.000000000000000 ) ;
#43 = DIRECTION ( 'NONE',  ( 0.0000000000000000000, 0.0000000000000000000, 1.000000000000000000 ) ) ;
#44 = CIRCLE ( 'NONE', #107, 101.5999999999999900 ) ;
#45 = CARTESIAN_POINT ( 'NONE',  ( 101.5999999999999900, 1.244241147933710700E-014, 3.000000000000000000 ) ) ;
#46 = DIRECTION ( 'NONE',  ( 1.000000000000000000, 0.0000000000000000000, 0.0000000000000000000 ) ) ;
#47 = PLANE ( 'NONE',  #113 ) ;
#48 =( LENGTH_UNIT ( ) NAMED_UNIT ( * ) SI_UNIT ( .MILLI., .METRE. ) );
#49 = DATE_AND_TIME ( #64, #23 ) ;
#50 = CC_DESIGN_DATE_AND_TIME_ASSIGNMENT ( #134, #18, ( #25 ) ) ;
#51 =( GEOMETRIC_REPRESENTATION_CONTEXT ( 3 ) GLOBAL_UNCERTAINTY_ASSIGNED_CONTEXT ( ( #1 ) ) GLOBAL_UNIT_ASSIGNED_CONTEXT ( ( #48, #126, #111 ) ) REPRESENTATION_CONTEXT ( 'NONE', 'WORKASPACE' ) );
#52 = ADVANCED_BREP_SHAPE_REPRESENTATION ( 'Web Model 48859_48859', ( #35, #103 ), #51 ) ;
#53 = APPLICATION_CONTEXT ( 'configuration controlled 3d designs of mechanical parts and assemblies' ) ;
#54 = ADVANCED_FACE ( 'NONE', ( #27 ), #164, .T. ) ;
#55 = PERSON_AND_ORGANIZATION ( #97, #149 ) ;
#56 = ORIENTED_EDGE ( 'NONE', *, *, #147, .T. ) ;
#57 = DIRECTION ( 'NONE',  ( -1.000000000000000000, 0.0000000000000000000, 0.0000000000000000000 ) ) ;
#58 = APPROVAL ( #19, 'UNSPECIFIED' ) ;
#59 = CARTESIAN_POINT ( 'NONE',  ( 0.0000000000000000000, 0.0000000000000000000, 3.000000000000000000 ) ) ;
#60 = ORIENTED_EDGE ( 'NONE', *, *, #83, .T. ) ;
#61 = CARTESIAN_POINT ( 'NONE',  ( 0.0000000000000000000, 0.0000000000000000000, 3.000000000000000000 ) ) ;
#62 = DIRECTION ( 'NONE',  ( 0.0000000000000000000, 0.0000000000000000000, 1.000000000000000000 ) ) ;
#63 = DIRECTION ( 'NONE',  ( 1.000000000000000000, 0.0000000000000000000, 0.0000000000000000000 ) ) ;
#64 = CALENDAR_DATE ( 2017, 1, 3 ) ;
#65 = EDGE_CURVE ( 'NONE', #104, #118, #175, .T. ) ;
#66 = PERSON_AND_ORGANIZATION_ROLE ( 'design_owner' ) ;
#67 = VERTEX_POINT ( 'NONE', #163 ) ;
#68 = COORDINATED_UNIVERSAL_TIME_OFFSET ( 5, 0, .BEHIND. ) ;
#69 = CYLINDRICAL_SURFACE ( 'NONE', #138, 101.5999999999999900 ) ;
#70 = CC_DESIGN_APPROVAL ( #58, ( #25 ) ) ;
#71 = EDGE_LOOP ( 'NONE', ( #12, #125, #11, #60 ) ) ;
#72 = ORIENTED_EDGE ( 'NONE', *, *, #75, .F. ) ;
#73 = CALENDAR_DATE ( 2017, 1, 3 ) ;
#74 = PERSON_AND_ORGANIZATION ( #97, #149 ) ;
#75 = EDGE_CURVE ( 'NONE', #104, #67, #41, .T. ) ;
#76 = CLOSED_SHELL ( 'NONE', ( #54, #143, #158, #22 ) ) ;
#77 = DIRECTION ( 'NONE',  ( 0.0000000000000000000, 0.0000000000000000000, 1.000000000000000000 ) ) ;
#78 = DATE_AND_TIME ( #116, #36 ) ;
#79 = CARTESIAN_POINT ( 'NONE',  ( -101.5999999999999900, 0.0000000000000000000, 0.0000000000000000000 ) ) ;
#80 = CC_DESIGN_SECURITY_CLASSIFICATION ( #25, ( #160 ) ) ;
#81 = VECTOR ( 'NONE', #124, 1000.000000000000000 ) ;
#82 = APPROVAL_ROLE ( '' ) ;
#83 = EDGE_CURVE ( 'NONE', #90, #118, #153, .T. ) ;
#84 = LINE ( 'NONE', #9, #81 ) ;
#85 = CARTESIAN_POINT ( 'NONE',  ( 0.0000000000000000000, 0.0000000000000000000, 0.0000000000000000000 ) ) ;
#86 = CARTESIAN_POINT ( 'NONE',  ( 0.0000000000000000000, 0.0000000000000000000, 3.000000000000000000 ) ) ;
#87 = FACE_OUTER_BOUND ( 'NONE', #115, .T. ) ;
#88 = PERSON_AND_ORGANIZATION ( #97, #149 ) ;
#89 = PRODUCT ( 'Web Model 48859_48859', 'Web Model 48859_48859', '', ( #17 ) ) ;
#90 = VERTEX_POINT ( 'NONE', #79 ) ;
#91 = PERSON_AND_ORGANIZATION ( #97, #149 ) ;
#92 = PLANE ( 'NONE',  #40 ) ;
#93 = ORIENTED_EDGE ( 'NONE', *, *, #75, .T. ) ;
#94 = LOCAL_TIME ( 15, 58, 3.000000000000000000, #68 ) ;
#95 = DIRECTION ( 'NONE',  ( 1.000000000000000000, 0.0000000000000000000, -0.0000000000000000000 ) ) ;
#96 = AXIS2_PLACEMENT_3D ( 'NONE', #59, #110, #127 ) ;
#97 = PERSON ( 'UNSPECIFIED', 'UNSPECIFIED', 'UNSPECIFIED', ('UNSPECIFIED'), ('UNSPECIFIED'), ('UNSPECIFIED') ) ;
#98 = DIRECTION ( 'NONE',  ( 1.000000000000000000, 0.0000000000000000000, 0.0000000000000000000 ) ) ;
#99 = APPROVAL_ROLE ( '' ) ;
#100 = APPLICATION_PROTOCOL_DEFINITION ( 'international standard', 'config_control_design', 1994, #53 ) ;
#101 = DATE_AND_TIME ( #30, #119 ) ;
#102 = PERSON_AND_ORGANIZATION ( #97, #149 ) ;
#103 = AXIS2_PLACEMENT_3D ( 'NONE', #8, #62, #98 ) ;
#104 = VERTEX_POINT ( 'NONE', #152 ) ;
#105 = PERSON_AND_ORGANIZATION ( #97, #149 ) ;
#106 = DATE_AND_TIME ( #173, #37 ) ;
#107 = AXIS2_PLACEMENT_3D ( 'NONE', #165, #154, #63 ) ;
#108 = DIRECTION ( 'NONE',  ( -0.0000000000000000000, -0.0000000000000000000, -1.000000000000000000 ) ) ;
#109 = DIRECTION ( 'NONE',  ( 0.0000000000000000000, 0.0000000000000000000, 1.000000000000000000 ) ) ;
#110 = DIRECTION ( 'NONE',  ( 0.0000000000000000000, 0.0000000000000000000, 1.000000000000000000 ) ) ;
#111 =( NAMED_UNIT ( * ) SI_UNIT ( $, .STERADIAN. ) SOLID_ANGLE_UNIT ( ) );
#112 = DIRECTION ( 'NONE',  ( 0.0000000000000000000, 0.0000000000000000000, 1.000000000000000000 ) ) ;
#113 = AXIS2_PLACEMENT_3D ( 'NONE', #85, #109, #122 ) ;
#114 = APPROVAL_STATUS ( 'not_yet_approved' ) ;
#115 = EDGE_LOOP ( 'NONE', ( #33, #170 ) ) ;
#116 = CALENDAR_DATE ( 2017, 1, 3 ) ;
#117 = COORDINATED_UNIVERSAL_TIME_OFFSET ( 5, 0, .BEHIND. ) ;
#118 = VERTEX_POINT ( 'NONE', #28 ) ;
#119 = LOCAL_TIME ( 15, 58, 3.000000000000000000, #150 ) ;
#120 = APPROVAL ( #114, 'UNSPECIFIED' ) ;
#121 = PRODUCT_DEFINITION ( 'UNKNOWN', '', #160, #129 ) ;
#122 = DIRECTION ( 'NONE',  ( 1.000000000000000000, 0.0000000000000000000, -0.0000000000000000000 ) ) ;
#123 = DIRECTION ( 'NONE',  ( -0.0000000000000000000, -0.0000000000000000000, -1.000000000000000000 ) ) ;
#124 = DIRECTION ( 'NONE',  ( -0.0000000000000000000, -0.0000000000000000000, -1.000000000000000000 ) ) ;
#125 = ORIENTED_EDGE ( 'NONE', *, *, #155, .F. ) ;
#126 =( NAMED_UNIT ( * ) PLANE_ANGLE_UNIT ( ) SI_UNIT ( $, .RADIAN. ) );
#127 = DIRECTION ( 'NONE',  ( 1.000000000000000000, 0.0000000000000000000, 0.0000000000000000000 ) ) ;
#128 = SECURITY_CLASSIFICATION_LEVEL ( 'unclassified' ) ;
#129 = DESIGN_CONTEXT ( 'detailed design', #53, 'design' ) ;
#130 = APPLICATION_PROTOCOL_DEFINITION ( 'international standard', 'config_control_design', 1994, #131 ) ;
#131 = APPLICATION_CONTEXT ( 'configuration controlled 3d designs of mechanical parts and assemblies' ) ;
#132 = ORIENTED_EDGE ( 'NONE', *, *, #155, .T. ) ;
#133 = ORIENTED_EDGE ( 'NONE', *, *, #21, .F. ) ;
#134 = DATE_AND_TIME ( #73, #94 ) ;
#135 = CC_DESIGN_APPROVAL ( #120, ( #121 ) ) ;
#136 = APPROVAL_DATE_TIME ( #49, #167 ) ;
#137 = COORDINATED_UNIVERSAL_TIME_OFFSET ( 5, 0, .BEHIND. ) ;
#138 = AXIS2_PLACEMENT_3D ( 'NONE', #86, #123, #10 ) ;
#139 = APPROVAL_PERSON_ORGANIZATION ( #156, #58, #168 ) ;
#140 = CIRCLE ( 'NONE', #96, 101.5999999999999900 ) ;
#141 = CARTESIAN_POINT ( 'NONE',  ( 0.0000000000000000000, 0.0000000000000000000, 3.000000000000000000 ) ) ;
#142 = CC_DESIGN_PERSON_AND_ORGANIZATION_ASSIGNMENT ( #74, #4, ( #121 ) ) ;
#143 = ADVANCED_FACE ( 'NONE', ( #20 ), #69, .T. ) ;
#144 = PERSON_AND_ORGANIZATION_ROLE ( 'classification_officer' ) ;
#145 = EDGE_LOOP ( 'NONE', ( #72, #148, #56, #133 ) ) ;
#146 = APPROVAL_PERSON_ORGANIZATION ( #7, #120, #99 ) ;
#147 = EDGE_CURVE ( 'NONE', #118, #90, #44, .T. ) ;
#148 = ORIENTED_EDGE ( 'NONE', *, *, #65, .T. ) ;
#149 = ORGANIZATION ( 'UNSPECIFIED', 'UNSPECIFIED', '' ) ;
#150 = COORDINATED_UNIVERSAL_TIME_OFFSET ( 5, 0, .BEHIND. ) ;
#151 = CC_DESIGN_DATE_AND_TIME_ASSIGNMENT ( #78, #34, ( #121 ) ) ;
#152 = CARTESIAN_POINT ( 'NONE',  ( 101.5999999999999900, 1.244241147933710700E-014, 3.000000000000000000 ) ) ;
#153 = CIRCLE ( 'NONE', #38, 101.5999999999999900 ) ;
#154 = DIRECTION ( 'NONE',  ( 0.0000000000000000000, 0.0000000000000000000, 1.000000000000000000 ) ) ;
#155 = EDGE_CURVE ( 'NONE', #67, #104, #140, .T. ) ;
#156 = PERSON_AND_ORGANIZATION ( #97, #149 ) ;
#157 = PRODUCT_RELATED_PRODUCT_CATEGORY ( 'detail', '', ( #89 ) ) ;
#158 = ADVANCED_FACE ( 'NONE', ( #31 ), #92, .T. ) ;
#159 = APPROVAL_DATE_TIME ( #101, #58 ) ;
#160 = PRODUCT_DEFINITION_FORMATION_WITH_SPECIFIED_SOURCE ( 'ANY', '', #89, .NOT_KNOWN. ) ;
#161 = COORDINATED_UNIVERSAL_TIME_OFFSET ( 5, 0, .BEHIND. ) ;
#162 = SHAPE_DEFINITION_REPRESENTATION ( #26, #52 ) ;
#163 = CARTESIAN_POINT ( 'NONE',  ( -101.5999999999999900, 0.0000000000000000000, 3.000000000000000000 ) ) ;
#164 = CYLINDRICAL_SURFACE ( 'NONE', #166, 101.5999999999999900 ) ;
#165 = CARTESIAN_POINT ( 'NONE',  ( 0.0000000000000000000, 0.0000000000000000000, 0.0000000000000000000 ) ) ;
#166 = AXIS2_PLACEMENT_3D ( 'NONE', #61, #29, #57 ) ;
#167 = APPROVAL ( #32, 'UNSPECIFIED' ) ;
#168 = APPROVAL_ROLE ( '' ) ;
#169 = PERSON_AND_ORGANIZATION_ROLE ( 'creator' ) ;
#170 = ORIENTED_EDGE ( 'NONE', *, *, #147, .F. ) ;
#171 = APPROVAL_DATE_TIME ( #106, #120 ) ;
#172 = EDGE_LOOP ( 'NONE', ( #132, #93 ) ) ;
#173 = CALENDAR_DATE ( 2017, 1, 3 ) ;
#174 = CC_DESIGN_APPROVAL ( #167, ( #160 ) ) ;
#175 = LINE ( 'NONE', #45, #42 ) ;
ENDSEC;
END-ISO-10303-21;
