ISO-10303-21;
HEADER;
FILE_DESCRIPTION (( 'STEP AP203' ),
    '1' );
FILE_NAME ('Web Model 64397MX_43746.step',
    '2017-10-30T13:00:40',
    ( '' ),
    ( '' ),
    'SwSTEP 2.0',
    'SolidWorks 2016',
    '' );
FILE_SCHEMA (( 'CONFIG_CONTROL_DESIGN' ));
ENDSEC;

DATA;
#1 = LINE ( 'NONE', #75, #24 ) ;
#2 = PERSON_AND_ORGANIZATION ( #185, #127 ) ;
#3 = CARTESIAN_POINT ( 'NONE',  ( 6.349999999999998800, 6.350000000000000500, 3.000000000000000000 ) ) ;
#4 = DIRECTION ( 'NONE',  ( -0.0000000000000000000, -1.000000000000000000, -0.0000000000000000000 ) ) ;
#5 =( LENGTH_UNIT ( ) NAMED_UNIT ( * ) SI_UNIT ( .MILLI., .METRE. ) );
#6 = PERSON_AND_ORGANIZATION ( #185, #127 ) ;
#7 = DATE_AND_TIME ( #55, #100 ) ;
#8 = APPROVAL_DATE_TIME ( #63, #19 ) ;
#9 = ORIENTED_EDGE ( 'NONE', *, *, #101, .T. ) ;
#10 = CARTESIAN_POINT ( 'NONE',  ( 6.349999999999998800, 6.350000000000000500, 3.000000000000000000 ) ) ;
#11 = DATE_AND_TIME ( #42, #167 ) ;
#12 = DIRECTION ( 'NONE',  ( 1.000000000000000000, 0.0000000000000000000, -0.0000000000000000000 ) ) ;
#13 = VERTEX_POINT ( 'NONE', #181 ) ;
#14 = AXIS2_PLACEMENT_3D ( 'NONE', #83, #68, #214 ) ;
#15 = ORIENTED_EDGE ( 'NONE', *, *, #133, .F. ) ;
#16 = ADVANCED_BREP_SHAPE_REPRESENTATION ( 'Web Model 64397MX_43746', ( #138, #45 ), #32 ) ;
#17 = VECTOR ( 'NONE', #28, 1000.000000000000000 ) ;
#18 = VERTEX_POINT ( 'NONE', #212 ) ;
#19 = APPROVAL ( #151, 'UNSPECIFIED' ) ;
#20 = EDGE_CURVE ( 'NONE', #107, #18, #137, .T. ) ;
#21 = ORIENTED_EDGE ( 'NONE', *, *, #20, .F. ) ;
#22 = APPROVAL_ROLE ( '' ) ;
#23 = CC_DESIGN_PERSON_AND_ORGANIZATION_ASSIGNMENT ( #160, #117, ( #177 ) ) ;
#24 = VECTOR ( 'NONE', #60, 1000.000000000000000 ) ;
#25 = ORIENTED_EDGE ( 'NONE', *, *, #203, .T. ) ;
#26 = COORDINATED_UNIVERSAL_TIME_OFFSET ( 5, 0, .BEHIND. ) ;
#27 = ADVANCED_FACE ( 'NONE', ( #204 ), #121, .F. ) ;
#28 = DIRECTION ( 'NONE',  ( -1.000000000000000000, -1.365923996832131600E-016, 0.0000000000000000000 ) ) ;
#29 = PERSON_AND_ORGANIZATION ( #185, #127 ) ;
#30 = PERSON_AND_ORGANIZATION ( #185, #127 ) ;
#31 = ORIENTED_EDGE ( 'NONE', *, *, #101, .F. ) ;
#32 =( GEOMETRIC_REPRESENTATION_CONTEXT ( 3 ) GLOBAL_UNCERTAINTY_ASSIGNED_CONTEXT ( ( #202 ) ) GLOBAL_UNIT_ASSIGNED_CONTEXT ( ( #5, #190, #92 ) ) REPRESENTATION_CONTEXT ( 'NONE', 'WORKASPACE' ) );
#33 = AXIS2_PLACEMENT_3D ( 'NONE', #140, #162, #216 ) ;
#34 = APPROVAL_PERSON_ORGANIZATION ( #29, #71, #22 ) ;
#35 = CC_DESIGN_SECURITY_CLASSIFICATION ( #148, ( #46 ) ) ;
#36 = SHAPE_DEFINITION_REPRESENTATION ( #208, #16 ) ;
#37 = APPLICATION_PROTOCOL_DEFINITION ( 'international standard', 'config_control_design', 1994, #131 ) ;
#38 = APPROVAL_PERSON_ORGANIZATION ( #30, #19, #41 ) ;
#39 = VERTEX_POINT ( 'NONE', #67 ) ;
#40 = APPROVAL_STATUS ( 'not_yet_approved' ) ;
#41 = APPROVAL_ROLE ( '' ) ;
#42 = CALENDAR_DATE ( 2017, 30, 10 ) ;
#43 = VECTOR ( 'NONE', #166, 1000.000000000000000 ) ;
#44 = CARTESIAN_POINT ( 'NONE',  ( 0.0000000000000000000, 0.0000000000000000000, 3.000000000000000000 ) ) ;
#45 = AXIS2_PLACEMENT_3D ( 'NONE', #129, #94, #134 ) ;
#46 = PRODUCT_DEFINITION_FORMATION_WITH_SPECIFIED_SOURCE ( 'ANY', '', #236, .NOT_KNOWN. ) ;
#47 = COORDINATED_UNIVERSAL_TIME_OFFSET ( 5, 0, .BEHIND. ) ;
#48 = ORIENTED_EDGE ( 'NONE', *, *, #194, .T. ) ;
#49 = DIRECTION ( 'NONE',  ( -1.000000000000000000, -1.365923996832131600E-016, 0.0000000000000000000 ) ) ;
#50 = DIRECTION ( 'NONE',  ( 0.0000000000000000000, 1.000000000000000000, 0.0000000000000000000 ) ) ;
#51 = DIRECTION ( 'NONE',  ( -0.0000000000000000000, -0.0000000000000000000, -1.000000000000000000 ) ) ;
#52 = APPROVAL_DATE_TIME ( #222, #71 ) ;
#53 = FACE_OUTER_BOUND ( 'NONE', #79, .T. ) ;
#54 = DIRECTION ( 'NONE',  ( 1.000000000000000000, 1.365923996832131600E-016, -0.0000000000000000000 ) ) ;
#55 = CALENDAR_DATE ( 2017, 30, 10 ) ;
#56 = FACE_OUTER_BOUND ( 'NONE', #182, .T. ) ;
#57 = AXIS2_PLACEMENT_3D ( 'NONE', #199, #81, #49 ) ;
#58 = CC_DESIGN_PERSON_AND_ORGANIZATION_ASSIGNMENT ( #6, #172, ( #46 ) ) ;
#59 = APPROVAL ( #40, 'UNSPECIFIED' ) ;
#60 = DIRECTION ( 'NONE',  ( -0.0000000000000000000, -1.000000000000000000, -0.0000000000000000000 ) ) ;
#61 = DIRECTION ( 'NONE',  ( 1.000000000000000000, 0.0000000000000000000, -0.0000000000000000000 ) ) ;
#62 = PERSON_AND_ORGANIZATION ( #185, #127 ) ;
#63 = DATE_AND_TIME ( #118, #169 ) ;
#64 = ORIENTED_EDGE ( 'NONE', *, *, #217, .T. ) ;
#65 = CARTESIAN_POINT ( 'NONE',  ( -6.350000000000000500, -6.350000000000000500, 3.000000000000000000 ) ) ;
#66 = CARTESIAN_POINT ( 'NONE',  ( -6.350000000000000500, -6.350000000000000500, -3.000000000000000000 ) ) ;
#67 = CARTESIAN_POINT ( 'NONE',  ( 6.349999999999998800, -6.349999999999998800, -3.000000000000000000 ) ) ;
#68 = DIRECTION ( 'NONE',  ( -1.000000000000000000, 0.0000000000000000000, 0.0000000000000000000 ) ) ;
#69 = CC_DESIGN_PERSON_AND_ORGANIZATION_ASSIGNMENT ( #146, #226, ( #148 ) ) ;
#70 = LINE ( 'NONE', #220, #218 ) ;
#71 = APPROVAL ( #132, 'UNSPECIFIED' ) ;
#72 = ORIENTED_EDGE ( 'NONE', *, *, #89, .F. ) ;
#73 = VECTOR ( 'NONE', #200, 1000.000000000000000 ) ;
#74 = CARTESIAN_POINT ( 'NONE',  ( -6.350000000000000500, -6.350000000000000500, -3.000000000000000000 ) ) ;
#75 = CARTESIAN_POINT ( 'NONE',  ( -6.350000000000000500, -6.350000000000000500, 3.000000000000000000 ) ) ;
#76 = DIRECTION ( 'NONE',  ( 1.000000000000000000, 1.365923996832131600E-016, 0.0000000000000000000 ) ) ;
#77 = VECTOR ( 'NONE', #228, 1000.000000000000000 ) ;
#78 = PRODUCT_RELATED_PRODUCT_CATEGORY ( 'detail', '', ( #236 ) ) ;
#79 = EDGE_LOOP ( 'NONE', ( #9, #116, #210, #223 ) ) ;
#80 = ADVANCED_FACE ( 'NONE', ( #88 ), #103, .F. ) ;
#81 = DIRECTION ( 'NONE',  ( -1.365923996832131600E-016, 1.000000000000000000, 0.0000000000000000000 ) ) ;
#82 = ORIENTED_EDGE ( 'NONE', *, *, #203, .F. ) ;
#83 = CARTESIAN_POINT ( 'NONE',  ( 6.349999999999998800, -6.349999999999998800, 3.000000000000000000 ) ) ;
#84 = AXIS2_PLACEMENT_3D ( 'NONE', #3, #153, #76 ) ;
#85 = CARTESIAN_POINT ( 'NONE',  ( -6.350000000000000500, -6.350000000000000500, 3.000000000000000000 ) ) ;
#86 = COORDINATED_UNIVERSAL_TIME_OFFSET ( 5, 0, .BEHIND. ) ;
#87 = DIRECTION ( 'NONE',  ( -0.0000000000000000000, -0.0000000000000000000, -1.000000000000000000 ) ) ;
#88 = FACE_OUTER_BOUND ( 'NONE', #192, .T. ) ;
#89 = EDGE_CURVE ( 'NONE', #165, #39, #144, .T. ) ;
#90 = VECTOR ( 'NONE', #142, 1000.000000000000000 ) ;
#91 = EDGE_CURVE ( 'NONE', #165, #13, #211, .T. ) ;
#92 =( NAMED_UNIT ( * ) SI_UNIT ( $, .STERADIAN. ) SOLID_ANGLE_UNIT ( ) );
#93 = VECTOR ( 'NONE', #4, 1000.000000000000000 ) ;
#94 = DIRECTION ( 'NONE',  ( 0.0000000000000000000, 0.0000000000000000000, 1.000000000000000000 ) ) ;
#95 = SECURITY_CLASSIFICATION_LEVEL ( 'unclassified' ) ;
#96 = LOCAL_TIME ( 9, 0, 40.00000000000000000, #86 ) ;
#97 = CC_DESIGN_DATE_AND_TIME_ASSIGNMENT ( #7, #114, ( #177 ) ) ;
#98 = LINE ( 'NONE', #215, #73 ) ;
#99 = PLANE ( 'NONE',  #237 ) ;
#100 = LOCAL_TIME ( 9, 0, 40.00000000000000000, #47 ) ;
#101 = EDGE_CURVE ( 'NONE', #39, #107, #229, .T. ) ;
#102 = ORIENTED_EDGE ( 'NONE', *, *, #109, .F. ) ;
#103 = PLANE ( 'NONE',  #57 ) ;
#104 = CALENDAR_DATE ( 2017, 30, 10 ) ;
#105 = CARTESIAN_POINT ( 'NONE',  ( 0.0000000000000000000, 0.0000000000000000000, -3.000000000000000000 ) ) ;
#106 = CARTESIAN_POINT ( 'NONE',  ( -6.350000000000000500, 6.349999999999998800, 3.000000000000000000 ) ) ;
#107 = VERTEX_POINT ( 'NONE', #184 ) ;
#108 = CC_DESIGN_PERSON_AND_ORGANIZATION_ASSIGNMENT ( #62, #113, ( #236 ) ) ;
#109 = EDGE_CURVE ( 'NONE', #156, #39, #164, .T. ) ;
#110 = VECTOR ( 'NONE', #54, 1000.000000000000000 ) ;
#111 = EDGE_CURVE ( 'NONE', #119, #156, #136, .T. ) ;
#112 = ORIENTED_EDGE ( 'NONE', *, *, #111, .F. ) ;
#113 = PERSON_AND_ORGANIZATION_ROLE ( 'design_owner' ) ;
#114 = DATE_TIME_ROLE ( 'creation_date' ) ;
#115 = DATE_TIME_ROLE ( 'classification_date' ) ;
#116 = ORIENTED_EDGE ( 'NONE', *, *, #163, .F. ) ;
#117 = PERSON_AND_ORGANIZATION_ROLE ( 'creator' ) ;
#118 = CALENDAR_DATE ( 2017, 30, 10 ) ;
#119 = VERTEX_POINT ( 'NONE', #85 ) ;
#120 = AXIS2_PLACEMENT_3D ( 'NONE', #105, #201, #12 ) ;
#121 = PLANE ( 'NONE',  #33 ) ;
#122 = EDGE_LOOP ( 'NONE', ( #48, #213, #170, #205 ) ) ;
#123 = CARTESIAN_POINT ( 'NONE',  ( 6.349999999999998800, -6.349999999999998800, 3.000000000000000000 ) ) ;
#124 = APPROVAL_DATE_TIME ( #234, #59 ) ;
#125 = ORIENTED_EDGE ( 'NONE', *, *, #109, .T. ) ;
#126 = CC_DESIGN_APPROVAL ( #59, ( #46 ) ) ;
#127 = ORGANIZATION ( 'UNSPECIFIED', 'UNSPECIFIED', '' ) ;
#128 = CLOSED_SHELL ( 'NONE', ( #27, #80, #154, #180, #233, #159 ) ) ;
#129 = CARTESIAN_POINT ( 'NONE',  ( 0.0000000000000000000, 0.0000000000000000000, 0.0000000000000000000 ) ) ;
#130 = ORIENTED_EDGE ( 'NONE', *, *, #163, .T. ) ;
#131 = APPLICATION_CONTEXT ( 'configuration controlled 3d designs of mechanical parts and assemblies' ) ;
#132 = APPROVAL_STATUS ( 'not_yet_approved' ) ;
#133 = EDGE_CURVE ( 'NONE', #119, #165, #98, .T. ) ;
#134 = DIRECTION ( 'NONE',  ( 1.000000000000000000, 0.0000000000000000000, 0.0000000000000000000 ) ) ;
#135 = DIRECTION ( 'NONE',  ( 0.0000000000000000000, -0.0000000000000000000, 1.000000000000000000 ) ) ;
#136 = LINE ( 'NONE', #65, #90 ) ;
#137 = LINE ( 'NONE', #235, #17 ) ;
#138 = MANIFOLD_SOLID_BREP ( 'Boss-Extrude1', #128 ) ;
#139 = CARTESIAN_POINT ( 'NONE',  ( 6.349999999999998800, -6.349999999999998800, -3.000000000000000000 ) ) ;
#140 = CARTESIAN_POINT ( 'NONE',  ( -6.350000000000000500, -6.350000000000000500, 3.000000000000000000 ) ) ;
#141 = CC_DESIGN_DATE_AND_TIME_ASSIGNMENT ( #11, #115, ( #148 ) ) ;
#142 = DIRECTION ( 'NONE',  ( -0.0000000000000000000, -0.0000000000000000000, -1.000000000000000000 ) ) ;
#143 = LINE ( 'NONE', #74, #93 ) ;
#144 = LINE ( 'NONE', #123, #147 ) ;
#145 = EDGE_LOOP ( 'NONE', ( #219, #230, #179, #130 ) ) ;
#146 = PERSON_AND_ORGANIZATION ( #185, #127 ) ;
#147 = VECTOR ( 'NONE', #51, 1000.000000000000000 ) ;
#148 = SECURITY_CLASSIFICATION ( '', '', #95 ) ;
#149 = FACE_OUTER_BOUND ( 'NONE', #145, .T. ) ;
#150 = ORIENTED_EDGE ( 'NONE', *, *, #111, .T. ) ;
#151 = APPROVAL_STATUS ( 'not_yet_approved' ) ;
#152 = CARTESIAN_POINT ( 'NONE',  ( -6.350000000000000500, 6.349999999999998800, 3.000000000000000000 ) ) ;
#153 = DIRECTION ( 'NONE',  ( 1.365923996832131600E-016, -1.000000000000000000, 0.0000000000000000000 ) ) ;
#154 = ADVANCED_FACE ( 'NONE', ( #53 ), #183, .F. ) ;
#155 = CALENDAR_DATE ( 2017, 30, 10 ) ;
#156 = VERTEX_POINT ( 'NONE', #66 ) ;
#157 = CC_DESIGN_APPROVAL ( #19, ( #177 ) ) ;
#158 = CARTESIAN_POINT ( 'NONE',  ( 6.349999999999998800, -6.349999999999998800, 3.000000000000000000 ) ) ;
#159 = ADVANCED_FACE ( 'NONE', ( #56 ), #232, .F. ) ;
#160 = PERSON_AND_ORGANIZATION ( #185, #127 ) ;
#161 = CARTESIAN_POINT ( 'NONE',  ( 6.349999999999998800, -6.349999999999998800, 3.000000000000000000 ) ) ;
#162 = DIRECTION ( 'NONE',  ( 1.000000000000000000, 0.0000000000000000000, 0.0000000000000000000 ) ) ;
#163 = EDGE_CURVE ( 'NONE', #13, #107, #70, .T. ) ;
#164 = LINE ( 'NONE', #139, #110 ) ;
#165 = VERTEX_POINT ( 'NONE', #161 ) ;
#166 = DIRECTION ( 'NONE',  ( -1.000000000000000000, -1.365923996832131600E-016, 0.0000000000000000000 ) ) ;
#167 = LOCAL_TIME ( 9, 0, 40.00000000000000000, #26 ) ;
#168 = CC_DESIGN_APPROVAL ( #71, ( #148 ) ) ;
#169 = LOCAL_TIME ( 9, 0, 40.00000000000000000, #206 ) ;
#170 = ORIENTED_EDGE ( 'NONE', *, *, #91, .T. ) ;
#171 = PERSON_AND_ORGANIZATION_ROLE ( 'creator' ) ;
#172 = PERSON_AND_ORGANIZATION_ROLE ( 'design_supplier' ) ;
#173 = PERSON_AND_ORGANIZATION ( #185, #127 ) ;
#174 = DESIGN_CONTEXT ( 'detailed design', #131, 'design' ) ;
#175 = EDGE_CURVE ( 'NONE', #13, #188, #187, .T. ) ;
#176 = APPLICATION_CONTEXT ( 'configuration controlled 3d designs of mechanical parts and assemblies' ) ;
#177 = PRODUCT_DEFINITION ( 'UNKNOWN', '', #46, #174 ) ;
#178 = VECTOR ( 'NONE', #50, 1000.000000000000000 ) ;
#179 = ORIENTED_EDGE ( 'NONE', *, *, #175, .F. ) ;
#180 = ADVANCED_FACE ( 'NONE', ( #149 ), #224, .F. ) ;
#181 = CARTESIAN_POINT ( 'NONE',  ( 6.349999999999998800, 6.350000000000000500, 3.000000000000000000 ) ) ;
#182 = EDGE_LOOP ( 'NONE', ( #82, #21, #31, #102 ) ) ;
#183 = PLANE ( 'NONE',  #14 ) ;
#184 = CARTESIAN_POINT ( 'NONE',  ( 6.349999999999998800, 6.350000000000000500, -3.000000000000000000 ) ) ;
#185 = PERSON ( 'UNSPECIFIED', 'UNSPECIFIED', 'UNSPECIFIED', ('UNSPECIFIED'), ('UNSPECIFIED'), ('UNSPECIFIED') ) ;
#186 = LOCAL_TIME ( 9, 0, 40.00000000000000000, #196 ) ;
#187 = LINE ( 'NONE', #10, #43 ) ;
#188 = VERTEX_POINT ( 'NONE', #106 ) ;
#189 = FACE_OUTER_BOUND ( 'NONE', #122, .T. ) ;
#190 =( NAMED_UNIT ( * ) PLANE_ANGLE_UNIT ( ) SI_UNIT ( $, .RADIAN. ) );
#191 = APPROVAL_PERSON_ORGANIZATION ( #2, #59, #193 ) ;
#192 = EDGE_LOOP ( 'NONE', ( #125, #72, #15, #150 ) ) ;
#193 = APPROVAL_ROLE ( '' ) ;
#194 = EDGE_CURVE ( 'NONE', #188, #119, #1, .T. ) ;
#195 = MECHANICAL_CONTEXT ( 'NONE', #176, 'mechanical' ) ;
#196 = COORDINATED_UNIVERSAL_TIME_OFFSET ( 5, 0, .BEHIND. ) ;
#197 = LINE ( 'NONE', #152, #198 ) ;
#198 = VECTOR ( 'NONE', #209, 1000.000000000000000 ) ;
#199 = CARTESIAN_POINT ( 'NONE',  ( 6.349999999999998800, -6.349999999999998800, 3.000000000000000000 ) ) ;
#200 = DIRECTION ( 'NONE',  ( 1.000000000000000000, 1.365923996832131600E-016, -0.0000000000000000000 ) ) ;
#201 = DIRECTION ( 'NONE',  ( 0.0000000000000000000, -0.0000000000000000000, 1.000000000000000000 ) ) ;
#202 = UNCERTAINTY_MEASURE_WITH_UNIT (LENGTH_MEASURE( 1.000000000000000100E-005 ), #5, 'distance_accuracy_value', 'NONE');
#203 = EDGE_CURVE ( 'NONE', #18, #156, #143, .T. ) ;
#204 = FACE_OUTER_BOUND ( 'NONE', #227, .T. ) ;
#205 = ORIENTED_EDGE ( 'NONE', *, *, #175, .T. ) ;
#206 = COORDINATED_UNIVERSAL_TIME_OFFSET ( 5, 0, .BEHIND. ) ;
#207 = ORIENTED_EDGE ( 'NONE', *, *, #194, .F. ) ;
#208 = PRODUCT_DEFINITION_SHAPE ( 'NONE', 'NONE',  #177 ) ;
#209 = DIRECTION ( 'NONE',  ( -0.0000000000000000000, -0.0000000000000000000, -1.000000000000000000 ) ) ;
#210 = ORIENTED_EDGE ( 'NONE', *, *, #91, .F. ) ;
#211 = LINE ( 'NONE', #158, #178 ) ;
#212 = CARTESIAN_POINT ( 'NONE',  ( -6.350000000000000500, 6.349999999999998800, -3.000000000000000000 ) ) ;
#213 = ORIENTED_EDGE ( 'NONE', *, *, #133, .T. ) ;
#214 = DIRECTION ( 'NONE',  ( 0.0000000000000000000, 0.0000000000000000000, 1.000000000000000000 ) ) ;
#215 = CARTESIAN_POINT ( 'NONE',  ( 6.349999999999998800, -6.349999999999998800, 3.000000000000000000 ) ) ;
#216 = DIRECTION ( 'NONE',  ( 0.0000000000000000000, 0.0000000000000000000, -1.000000000000000000 ) ) ;
#217 = EDGE_CURVE ( 'NONE', #188, #18, #197, .T. ) ;
#218 = VECTOR ( 'NONE', #87, 1000.000000000000000 ) ;
#219 = ORIENTED_EDGE ( 'NONE', *, *, #20, .T. ) ;
#220 = CARTESIAN_POINT ( 'NONE',  ( 6.349999999999998800, 6.350000000000000500, 3.000000000000000000 ) ) ;
#221 = CC_DESIGN_PERSON_AND_ORGANIZATION_ASSIGNMENT ( #173, #171, ( #46 ) ) ;
#222 = DATE_AND_TIME ( #155, #96 ) ;
#223 = ORIENTED_EDGE ( 'NONE', *, *, #89, .T. ) ;
#224 = PLANE ( 'NONE',  #84 ) ;
#225 = APPLICATION_PROTOCOL_DEFINITION ( 'international standard', 'config_control_design', 1994, #176 ) ;
#226 = PERSON_AND_ORGANIZATION_ROLE ( 'classification_officer' ) ;
#227 = EDGE_LOOP ( 'NONE', ( #25, #112, #207, #64 ) ) ;
#228 = DIRECTION ( 'NONE',  ( 0.0000000000000000000, 1.000000000000000000, 0.0000000000000000000 ) ) ;
#229 = LINE ( 'NONE', #231, #77 ) ;
#230 = ORIENTED_EDGE ( 'NONE', *, *, #217, .F. ) ;
#231 = CARTESIAN_POINT ( 'NONE',  ( 6.349999999999998800, -6.349999999999998800, -3.000000000000000000 ) ) ;
#232 = PLANE ( 'NONE',  #120 ) ;
#233 = ADVANCED_FACE ( 'NONE', ( #189 ), #99, .T. ) ;
#234 = DATE_AND_TIME ( #104, #186 ) ;
#235 = CARTESIAN_POINT ( 'NONE',  ( 6.349999999999998800, 6.350000000000000500, -3.000000000000000000 ) ) ;
#236 = PRODUCT ( 'Web Model 64397MX_43746', 'Web Model 64397MX_43746', '', ( #195 ) ) ;
#237 = AXIS2_PLACEMENT_3D ( 'NONE', #44, #135, #61 ) ;
ENDSEC;
END-ISO-10303-21;
