ISO-10303-21;
HEADER;
FILE_DESCRIPTION (( 'STEP AP214' ),
    '1' );
FILE_NAME ('4588-E0W.STEP',
    '2009-12-21T17:11:42',
    ( ' ' ),
    ( ' ' ),
    'SwSTEP 2.0',
    'SolidWorks 2009',
    '' );
FILE_SCHEMA (( 'AUTOMOTIVE_DESIGN' ));
ENDSEC;

DATA;
#1 = CARTESIAN_POINT ( 'NONE',  ( 0.0000000000000000000, 0.0000000000000000000, 0.0000000000000000000 ) ) ;
#2 = AXIS2_PLACEMENT_3D ( 'NONE', #1, #4, #3 ) ;
#3 = DIRECTION ( 'NONE',  ( 1.000000000000000000, 0.0000000000000000000, 0.0000000000000000000 ) ) ;
#4 = DIRECTION ( 'NONE',  ( 0.0000000000000000000, 0.0000000000000000000, 1.000000000000000000 ) ) ;
#5 = APPLICATION_CONTEXT ( 'automotive_design' ) ;
#6 = PRODUCT_CONTEXT ( 'NONE', #5, 'mechanical' ) ;
#7 = APPLICATION_PROTOCOL_DEFINITION ( 'draft international standard', 'automotive_design', 1998, #5 ) ;
#8 = LINE ( 'NONE', #36, #35 ) ;
#9 = CARTESIAN_POINT ( 'NONE',  ( 0.0000000000000000000, 5.106777152444462700E-016, -1.389999999999999700 ) ) ;
#10 = FILL_AREA_STYLE ('',( #55 ) ) ;
#11 = COLOUR_RGB ( '',0.9568627450980391500, 0.9490196078431372100, 0.9607843137254902200 ) ;
#12 = DIRECTION ( 'NONE',  ( 1.000000000000000000, 0.0000000000000000000, 0.0000000000000000000 ) ) ;
#13 = DIRECTION ( 'NONE',  ( -0.0000000000000000000, -0.0000000000000000000, 1.000000000000000000 ) ) ;
#14 = CARTESIAN_POINT ( 'NONE',  ( 0.0000000000000000000, 6.307335025362153200E-015, 1.390000000000002300 ) ) ;
#15 = AXIS2_PLACEMENT_3D ( 'NONE', #18, #76, #75 ) ;
#16 = SPHERICAL_SURFACE ( 'NONE', #15, 103.0099999999999900 ) ;
#17 =( GEOMETRIC_REPRESENTATION_CONTEXT ( 3 ) GLOBAL_UNCERTAINTY_ASSIGNED_CONTEXT ( ( #46 ) ) GLOBAL_UNIT_ASSIGNED_CONTEXT ( ( #31, #68, #49 ) ) REPRESENTATION_CONTEXT ( 'NONE', 'WORKASPACE' ) );
#18 = CARTESIAN_POINT ( 'NONE',  ( 0.0000000000000000000, 0.0000000000000000000, -101.6199999999999900 ) ) ;
#19 = SURFACE_STYLE_USAGE ( .BOTH. , #20 ) ;
#20 = SURFACE_SIDE_STYLE ('',( #21 ) ) ;
#21 = SURFACE_STYLE_FILL_AREA ( #22 ) ;
#22 = FILL_AREA_STYLE ('',( #23 ) ) ;
#23 = FILL_AREA_STYLE_COLOUR ( '', #24 ) ;
#24 = COLOUR_RGB ( '',0.7960784313725489700, 0.8235294117647058400, 0.9372549019607843100 ) ;
#25 = STYLED_ITEM ( 'NONE', ( #47 ), #143 ) ;
#26 = MECHANICAL_DESIGN_GEOMETRIC_PRESENTATION_REPRESENTATION (  '', ( #28 ), #81 ) ;
#27 = PRESENTATION_LAYER_ASSIGNMENT (  '', '', ( #28 ) ) ;
#28 = STYLED_ITEM ( 'NONE', ( #71 ), #157 ) ;
#29 =( NAMED_UNIT ( * ) PLANE_ANGLE_UNIT ( ) SI_UNIT ( $, .RADIAN. ) );
#30 = DIRECTION ( 'NONE',  ( 1.000000000000000000, 0.0000000000000000000, 0.0000000000000000000 ) ) ;
#31 =( LENGTH_UNIT ( ) NAMED_UNIT ( * ) SI_UNIT ( .MILLI., .METRE. ) );
#32 = CARTESIAN_POINT ( 'NONE',  ( -12.69999999999999900, 1.555250069354419100E-015, 0.6041170174631701500 ) ) ;
#33 =( NAMED_UNIT ( * ) PLANE_ANGLE_UNIT ( ) SI_UNIT ( $, .RADIAN. ) );
#34 = DIRECTION ( 'NONE',  ( -0.0000000000000000000, -0.0000000000000000000, 1.000000000000000000 ) ) ;
#35 = VECTOR ( 'NONE', #34, 1000.000000000000000 ) ;
#36 = CARTESIAN_POINT ( 'NONE',  ( -12.69999999999999900, 1.555250069354419100E-015, 4.308132045400366600 ) ) ;
#37 = UNCERTAINTY_MEASURE_WITH_UNIT (LENGTH_MEASURE( 1.000000000000000100E-005 ), #54, 'distance_accuracy_value', 'NONE');
#38 =( NAMED_UNIT ( * ) SI_UNIT ( $, .STERADIAN. ) SOLID_ANGLE_UNIT ( ) );
#39 = FILL_AREA_STYLE_COLOUR ( '', #53 ) ;
#40 =( NAMED_UNIT ( * ) SI_UNIT ( $, .STERADIAN. ) SOLID_ANGLE_UNIT ( ) );
#41 = DIRECTION ( 'NONE',  ( 0.0000000000000000000, -0.0000000000000000000, 1.000000000000000000 ) ) ;
#42 =( LENGTH_UNIT ( ) NAMED_UNIT ( * ) SI_UNIT ( .MILLI., .METRE. ) );
#43 =( GEOMETRIC_REPRESENTATION_CONTEXT ( 3 ) GLOBAL_UNCERTAINTY_ASSIGNED_CONTEXT ( ( #66 ) ) GLOBAL_UNIT_ASSIGNED_CONTEXT ( ( #59, #64, #67 ) ) REPRESENTATION_CONTEXT ( 'NONE', 'WORKASPACE' ) );
#44 =( GEOMETRIC_REPRESENTATION_CONTEXT ( 3 ) GLOBAL_UNCERTAINTY_ASSIGNED_CONTEXT ( ( #70 ) ) GLOBAL_UNIT_ASSIGNED_CONTEXT ( ( #42, #29, #40 ) ) REPRESENTATION_CONTEXT ( 'NONE', 'WORKASPACE' ) );
#45 = PLANE ( 'NONE',  #57 ) ;
#46 = UNCERTAINTY_MEASURE_WITH_UNIT (LENGTH_MEASURE( 1.000000000000000100E-005 ), #31, 'distance_accuracy_value', 'NONE');
#47 = PRESENTATION_STYLE_ASSIGNMENT (( #48 ) ) ;
#48 = SURFACE_STYLE_USAGE ( .BOTH. , #51 ) ;
#49 =( NAMED_UNIT ( * ) SI_UNIT ( $, .STERADIAN. ) SOLID_ANGLE_UNIT ( ) );
#50 = ADVANCED_BREP_SHAPE_REPRESENTATION ( '4588-E0W', ( #143, #2 ), #44 ) ;
#51 = SURFACE_SIDE_STYLE ('',( #77 ) ) ;
#52 = PRESENTATION_LAYER_ASSIGNMENT (  '', '', ( #25 ) ) ;
#53 = COLOUR_RGB ( '',0.7960784313725489700, 0.8235294117647058400, 0.9372549019607843100 ) ;
#54 =( LENGTH_UNIT ( ) NAMED_UNIT ( * ) SI_UNIT ( .MILLI., .METRE. ) );
#55 = FILL_AREA_STYLE_COLOUR ( '', #11 ) ;
#56 = FACE_OUTER_BOUND ( 'NONE', #153, .T. ) ;
#57 = AXIS2_PLACEMENT_3D ( 'NONE', #9, #41, #30 ) ;
#58 = CARTESIAN_POINT ( 'NONE',  ( 12.69999999999999900, 0.0000000000000000000, -1.389999999999999700 ) ) ;
#59 =( LENGTH_UNIT ( ) NAMED_UNIT ( * ) SI_UNIT ( .MILLI., .METRE. ) );
#60 = MECHANICAL_DESIGN_GEOMETRIC_PRESENTATION_REPRESENTATION (  '', ( #62 ), #43 ) ;
#61 = PRESENTATION_LAYER_ASSIGNMENT (  '', '', ( #62 ) ) ;
#62 = STYLED_ITEM ( 'NONE', ( #63 ), #50 ) ;
#63 = PRESENTATION_STYLE_ASSIGNMENT (( #19 ) ) ;
#64 =( NAMED_UNIT ( * ) PLANE_ANGLE_UNIT ( ) SI_UNIT ( $, .RADIAN. ) );
#65 = MECHANICAL_DESIGN_GEOMETRIC_PRESENTATION_REPRESENTATION (  '', ( #25 ), #17 ) ;
#66 = UNCERTAINTY_MEASURE_WITH_UNIT (LENGTH_MEASURE( 1.000000000000000100E-005 ), #59, 'distance_accuracy_value', 'NONE');
#67 =( NAMED_UNIT ( * ) SI_UNIT ( $, .STERADIAN. ) SOLID_ANGLE_UNIT ( ) );
#68 =( NAMED_UNIT ( * ) PLANE_ANGLE_UNIT ( ) SI_UNIT ( $, .RADIAN. ) );
#69 = FILL_AREA_STYLE ('',( #39 ) ) ;
#70 = UNCERTAINTY_MEASURE_WITH_UNIT (LENGTH_MEASURE( 1.000000000000000100E-005 ), #42, 'distance_accuracy_value', 'NONE');
#71 = PRESENTATION_STYLE_ASSIGNMENT (( #72 ) ) ;
#72 = SURFACE_STYLE_USAGE ( .BOTH. , #73 ) ;
#73 = SURFACE_SIDE_STYLE ('',( #74 ) ) ;
#74 = SURFACE_STYLE_FILL_AREA ( #10 ) ;
#75 = DIRECTION ( 'NONE',  ( 0.0000000000000000000, 1.000000000000000000, 0.0000000000000000000 ) ) ;
#76 = DIRECTION ( 'NONE',  ( -1.000000000000000000, 0.0000000000000000000, 0.0000000000000000000 ) ) ;
#77 = SURFACE_STYLE_FILL_AREA ( #69 ) ;
#78 = CARTESIAN_POINT ( 'NONE',  ( 0.0000000000000000000, 0.0000000000000000000, 0.6041170174631701500 ) ) ;
#79 = AXIS2_PLACEMENT_3D ( 'NONE', #78, #13, #12 ) ;
#80 = CIRCLE ( 'NONE', #79, 12.69999999999999900 ) ;
#81 =( GEOMETRIC_REPRESENTATION_CONTEXT ( 3 ) GLOBAL_UNCERTAINTY_ASSIGNED_CONTEXT ( ( #37 ) ) GLOBAL_UNIT_ASSIGNED_CONTEXT ( ( #54, #33, #38 ) ) REPRESENTATION_CONTEXT ( 'NONE', 'WORKASPACE' ) );
#82 = APPLICATION_PROTOCOL_DEFINITION ( 'draft international standard', 'automotive_design', 1998, #88 ) ;
#83 = PRODUCT_RELATED_PRODUCT_CATEGORY ( 'part', '', ( #85 ) ) ;
#84 = PRODUCT_DEFINITION_CONTEXT ( 'detailed design', #88, 'design' ) ;
#85 = PRODUCT ( '4588-E0W', '4588-E0W', '', ( #6 ) ) ;
#86 = PRODUCT_DEFINITION ( 'UNKNOWN', '', #87, #84 ) ;
#87 = PRODUCT_DEFINITION_FORMATION_WITH_SPECIFIED_SOURCE ( 'ANY', '', #85, .NOT_KNOWN. ) ;
#88 = APPLICATION_CONTEXT ( 'automotive_design' ) ;
#89 = SHAPE_DEFINITION_REPRESENTATION ( #90, #50 ) ;
#90 = PRODUCT_DEFINITION_SHAPE ( 'NONE', 'NONE',  #86 ) ;
#91 =( NAMED_UNIT ( * ) SI_UNIT ( $, .STERADIAN. ) SOLID_ANGLE_UNIT ( ) );
#92 =( LENGTH_UNIT ( ) NAMED_UNIT ( * ) SI_UNIT ( .MILLI., .METRE. ) );
#93 = PRESENTATION_LAYER_ASSIGNMENT (  '', '', ( #254 ) ) ;
#94 =( NAMED_UNIT ( * ) PLANE_ANGLE_UNIT ( ) SI_UNIT ( $, .RADIAN. ) );
#95 = FILL_AREA_STYLE ('',( #106 ) ) ;
#96 = PRESENTATION_LAYER_ASSIGNMENT (  '', '', ( #107 ) ) ;
#97 = MECHANICAL_DESIGN_GEOMETRIC_PRESENTATION_REPRESENTATION (  '', ( #107 ), #160 ) ;
#98 = MECHANICAL_DESIGN_GEOMETRIC_PRESENTATION_REPRESENTATION (  '', ( #254 ), #101 ) ;
#99 =( NAMED_UNIT ( * ) SI_UNIT ( $, .STERADIAN. ) SOLID_ANGLE_UNIT ( ) );
#100 = SURFACE_SIDE_STYLE ('',( #102 ) ) ;
#101 =( GEOMETRIC_REPRESENTATION_CONTEXT ( 3 ) GLOBAL_UNCERTAINTY_ASSIGNED_CONTEXT ( ( #168 ) ) GLOBAL_UNIT_ASSIGNED_CONTEXT ( ( #104, #94, #91 ) ) REPRESENTATION_CONTEXT ( 'NONE', 'WORKASPACE' ) );
#102 = SURFACE_STYLE_FILL_AREA ( #95 ) ;
#103 =( NAMED_UNIT ( * ) PLANE_ANGLE_UNIT ( ) SI_UNIT ( $, .RADIAN. ) );
#104 =( LENGTH_UNIT ( ) NAMED_UNIT ( * ) SI_UNIT ( .MILLI., .METRE. ) );
#105 = SURFACE_STYLE_USAGE ( .BOTH. , #100 ) ;
#106 = FILL_AREA_STYLE_COLOUR ( '', #127 ) ;
#107 = STYLED_ITEM ( 'NONE', ( #108 ), #112 ) ;
#108 = PRESENTATION_STYLE_ASSIGNMENT (( #105 ) ) ;
#109 = ORIENTED_EDGE ( 'NONE', *, *, #121, .F. ) ;
#110 = ORIENTED_EDGE ( 'NONE', *, *, #130, .F. ) ;
#111 = ORIENTED_EDGE ( 'NONE', *, *, #150, .F. ) ;
#112 = ADVANCED_FACE ( 'NONE', ( #128 ), #176, .T. ) ;
#113 = EDGE_LOOP ( 'NONE', ( #144, #149, #115, #124, #135 ) ) ;
#114 = VERTEX_POINT ( 'NONE', #177 ) ;
#115 = ORIENTED_EDGE ( 'NONE', *, *, #116, .F. ) ;
#116 = EDGE_CURVE ( 'NONE', #117, #151, #173, .T. ) ;
#117 = VERTEX_POINT ( 'NONE', #174 ) ;
#118 = VERTEX_POINT ( 'NONE', #169 ) ;
#119 = EDGE_CURVE ( 'NONE', #117, #145, #167, .T. ) ;
#120 = ORIENTED_EDGE ( 'NONE', *, *, #119, .T. ) ;
#121 = EDGE_CURVE ( 'NONE', #138, #118, #197, .T. ) ;
#122 = ORIENTED_EDGE ( 'NONE', *, *, #121, .T. ) ;
#123 = ADVANCED_FACE ( 'NONE', ( #223 ), #191, .T. ) ;
#124 = ORIENTED_EDGE ( 'NONE', *, *, #125, .F. ) ;
#125 = EDGE_CURVE ( 'NONE', #118, #117, #212, .T. ) ;
#126 = ORIENTED_EDGE ( 'NONE', *, *, #154, .T. ) ;
#127 = COLOUR_RGB ( '',0.9568627450980391500, 0.9490196078431372100, 0.9607843137254902200 ) ;
#128 = FACE_OUTER_BOUND ( 'NONE', #141, .T. ) ;
#129 = ADVANCED_FACE ( 'NONE', ( #195 ), #216, .T. ) ;
#130 = EDGE_CURVE ( 'NONE', #142, #114, #199, .T. ) ;
#131 = ORIENTED_EDGE ( 'NONE', *, *, #136, .F. ) ;
#132 = EDGE_CURVE ( 'NONE', #114, #142, #241, .T. ) ;
#133 = ORIENTED_EDGE ( 'NONE', *, *, #125, .T. ) ;
#134 = ORIENTED_EDGE ( 'NONE', *, *, #136, .T. ) ;
#135 = ORIENTED_EDGE ( 'NONE', *, *, #137, .F. ) ;
#136 = EDGE_CURVE ( 'NONE', #138, #145, #247, .T. ) ;
#137 = EDGE_CURVE ( 'NONE', #142, #118, #248, .T. ) ;
#138 = VERTEX_POINT ( 'NONE', #261 ) ;
#139 = ADVANCED_FACE ( 'NONE', ( #253 ), #45, .F. ) ;
#140 = ORIENTED_EDGE ( 'NONE', *, *, #137, .T. ) ;
#141 = EDGE_LOOP ( 'NONE', ( #156, #126, #134, #155 ) ) ;
#142 = VERTEX_POINT ( 'NONE', #58 ) ;
#143 = MANIFOLD_SOLID_BREP ( 'NONE', #152 ) ;
#144 = ORIENTED_EDGE ( 'NONE', *, *, #130, .T. ) ;
#145 = VERTEX_POINT ( 'NONE', #14 ) ;
#146 = ORIENTED_EDGE ( 'NONE', *, *, #132, .F. ) ;
#147 = EDGE_LOOP ( 'NONE', ( #110, #146 ) ) ;
#148 = ORIENTED_EDGE ( 'NONE', *, *, #154, .F. ) ;
#149 = ORIENTED_EDGE ( 'NONE', *, *, #150, .T. ) ;
#150 = EDGE_CURVE ( 'NONE', #114, #151, #8, .T. ) ;
#151 = VERTEX_POINT ( 'NONE', #32 ) ;
#152 = CLOSED_SHELL ( 'NONE', ( #129, #112, #157, #123, #139 ) ) ;
#153 = EDGE_LOOP ( 'NONE', ( #131, #122, #133, #120 ) ) ;
#154 = EDGE_CURVE ( 'NONE', #151, #138, #80, .T. ) ;
#155 = ORIENTED_EDGE ( 'NONE', *, *, #119, .F. ) ;
#156 = ORIENTED_EDGE ( 'NONE', *, *, #116, .T. ) ;
#157 = ADVANCED_FACE ( 'NONE', ( #56 ), #16, .T. ) ;
#158 = EDGE_LOOP ( 'NONE', ( #111, #159, #140, #109, #148 ) ) ;
#159 = ORIENTED_EDGE ( 'NONE', *, *, #132, .T. ) ;
#160 =( GEOMETRIC_REPRESENTATION_CONTEXT ( 3 ) GLOBAL_UNCERTAINTY_ASSIGNED_CONTEXT ( ( #162 ) ) GLOBAL_UNIT_ASSIGNED_CONTEXT ( ( #92, #103, #99 ) ) REPRESENTATION_CONTEXT ( 'NONE', 'WORKASPACE' ) );
#161 = CARTESIAN_POINT ( 'NONE',  ( 0.0000000000000000000, 0.0000000000000000000, 0.6041170174631701500 ) ) ;
#162 = UNCERTAINTY_MEASURE_WITH_UNIT (LENGTH_MEASURE( 1.000000000000000100E-005 ), #92, 'distance_accuracy_value', 'NONE');
#163 = DIRECTION ( 'NONE',  ( 0.0000000000000000000, 0.0000000000000000000, -1.000000000000000000 ) ) ;
#164 = DIRECTION ( 'NONE',  ( 1.000000000000000000, 0.0000000000000000000, 0.0000000000000000000 ) ) ;
#165 = CARTESIAN_POINT ( 'NONE',  ( 0.0000000000000000000, 0.0000000000000000000, -101.6199999999999900 ) ) ;
#166 = AXIS2_PLACEMENT_3D ( 'NONE', #165, #164, #163 ) ;
#167 = CIRCLE ( 'NONE', #166, 103.0099999999999900 ) ;
#168 = UNCERTAINTY_MEASURE_WITH_UNIT (LENGTH_MEASURE( 1.000000000000000100E-005 ), #104, 'distance_accuracy_value', 'NONE');
#169 = CARTESIAN_POINT ( 'NONE',  ( 12.69999999999999900, 0.0000000000000000000, 0.6041170174631701500 ) ) ;
#170 = DIRECTION ( 'NONE',  ( 1.000000000000000000, 0.0000000000000000000, 0.0000000000000000000 ) ) ;
#171 = DIRECTION ( 'NONE',  ( -0.0000000000000000000, -0.0000000000000000000, 1.000000000000000000 ) ) ;
#172 = AXIS2_PLACEMENT_3D ( 'NONE', #161, #171, #170 ) ;
#173 = CIRCLE ( 'NONE', #172, 12.69999999999999900 ) ;
#174 = CARTESIAN_POINT ( 'NONE',  ( 0.0000000000000000000, 12.69999999999996000, 0.6041170174631705900 ) ) ;
#175 = CARTESIAN_POINT ( 'NONE',  ( 0.0000000000000000000, 0.0000000000000000000, -101.6199999999999900 ) ) ;
#176 = SPHERICAL_SURFACE ( 'NONE', #180, 103.0099999999999900 ) ;
#177 = CARTESIAN_POINT ( 'NONE',  ( -12.69999999999999900, 1.555250069354419100E-015, -1.389999999999999700 ) ) ;
#178 = DIRECTION ( 'NONE',  ( 0.0000000000000000000, 1.000000000000000000, 0.0000000000000000000 ) ) ;
#179 = DIRECTION ( 'NONE',  ( -1.000000000000000000, 0.0000000000000000000, 0.0000000000000000000 ) ) ;
#180 = AXIS2_PLACEMENT_3D ( 'NONE', #175, #179, #178 ) ;
#181 =( GEOMETRIC_REPRESENTATION_CONTEXT ( 3 ) GLOBAL_UNCERTAINTY_ASSIGNED_CONTEXT ( ( #215 ) ) GLOBAL_UNIT_ASSIGNED_CONTEXT ( ( #242, #202, #230 ) ) REPRESENTATION_CONTEXT ( 'NONE', 'WORKASPACE' ) );
#182 = DIRECTION ( 'NONE',  ( 1.000000000000000000, 0.0000000000000000000, 0.0000000000000000000 ) ) ;
#183 = DIRECTION ( 'NONE',  ( -0.0000000000000000000, -0.0000000000000000000, 1.000000000000000000 ) ) ;
#184 = AXIS2_PLACEMENT_3D ( 'NONE', #213, #183, #182 ) ;
#185 = STYLED_ITEM ( 'NONE', ( #186 ), #129 ) ;
#186 = PRESENTATION_STYLE_ASSIGNMENT (( #187 ) ) ;
#187 = SURFACE_STYLE_USAGE ( .BOTH. , #188 ) ;
#188 = SURFACE_SIDE_STYLE ('',( #192 ) ) ;
#189 = AXIS2_PLACEMENT_3D ( 'NONE', #234, #190, #220 ) ;
#190 = DIRECTION ( 'NONE',  ( -0.0000000000000000000, -0.0000000000000000000, 1.000000000000000000 ) ) ;
#191 = CYLINDRICAL_SURFACE ( 'NONE', #227, 12.69999999999999900 ) ;
#192 = SURFACE_STYLE_FILL_AREA ( #193 ) ;
#193 = FILL_AREA_STYLE ('',( #221 ) ) ;
#194 = COLOUR_RGB ( '',0.9568627450980391500, 0.9490196078431372100, 0.9607843137254902200 ) ;
#195 = FACE_OUTER_BOUND ( 'NONE', #113, .T. ) ;
#196 =( LENGTH_UNIT ( ) NAMED_UNIT ( * ) SI_UNIT ( .MILLI., .METRE. ) );
#197 = CIRCLE ( 'NONE', #189, 12.69999999999999900 ) ;
#198 = UNCERTAINTY_MEASURE_WITH_UNIT (LENGTH_MEASURE( 1.000000000000000100E-005 ), #196, 'distance_accuracy_value', 'NONE');
#199 = CIRCLE ( 'NONE', #210, 12.69999999999999900 ) ;
#200 = DIRECTION ( 'NONE',  ( 1.000000000000000000, 0.0000000000000000000, 0.0000000000000000000 ) ) ;
#201 = DIRECTION ( 'NONE',  ( -0.0000000000000000000, -0.0000000000000000000, 1.000000000000000000 ) ) ;
#202 =( NAMED_UNIT ( * ) PLANE_ANGLE_UNIT ( ) SI_UNIT ( $, .RADIAN. ) );
#203 =( NAMED_UNIT ( * ) PLANE_ANGLE_UNIT ( ) SI_UNIT ( $, .RADIAN. ) );
#204 = MECHANICAL_DESIGN_GEOMETRIC_PRESENTATION_REPRESENTATION (  '', ( #185 ), #181 ) ;
#205 = PRESENTATION_LAYER_ASSIGNMENT (  '', '', ( #185 ) ) ;
#206 =( NAMED_UNIT ( * ) SI_UNIT ( $, .STERADIAN. ) SOLID_ANGLE_UNIT ( ) );
#207 = DIRECTION ( 'NONE',  ( 1.000000000000000000, 0.0000000000000000000, 0.0000000000000000000 ) ) ;
#208 = DIRECTION ( 'NONE',  ( -0.0000000000000000000, -0.0000000000000000000, 1.000000000000000000 ) ) ;
#209 = CARTESIAN_POINT ( 'NONE',  ( 0.0000000000000000000, 0.0000000000000000000, -1.389999999999999700 ) ) ;
#210 = AXIS2_PLACEMENT_3D ( 'NONE', #209, #208, #207 ) ;
#211 = SURFACE_SIDE_STYLE ('',( #229 ) ) ;
#212 = CIRCLE ( 'NONE', #184, 12.69999999999999900 ) ;
#213 = CARTESIAN_POINT ( 'NONE',  ( 0.0000000000000000000, 0.0000000000000000000, 0.6041170174631701500 ) ) ;
#214 = DIRECTION ( 'NONE',  ( 1.000000000000000000, 0.0000000000000000000, 0.0000000000000000000 ) ) ;
#215 = UNCERTAINTY_MEASURE_WITH_UNIT (LENGTH_MEASURE( 1.000000000000000100E-005 ), #242, 'distance_accuracy_value', 'NONE');
#216 = CYLINDRICAL_SURFACE ( 'NONE', #218, 12.69999999999999900 ) ;
#217 = CARTESIAN_POINT ( 'NONE',  ( 0.0000000000000000000, 0.0000000000000000000, 4.308132045400366600 ) ) ;
#218 = AXIS2_PLACEMENT_3D ( 'NONE', #217, #201, #200 ) ;
#219 = MECHANICAL_DESIGN_GEOMETRIC_PRESENTATION_REPRESENTATION (  '', ( #233 ), #236 ) ;
#220 = DIRECTION ( 'NONE',  ( 1.000000000000000000, 0.0000000000000000000, 0.0000000000000000000 ) ) ;
#221 = FILL_AREA_STYLE_COLOUR ( '', #194 ) ;
#222 = PRESENTATION_LAYER_ASSIGNMENT (  '', '', ( #233 ) ) ;
#223 = FACE_OUTER_BOUND ( 'NONE', #158, .T. ) ;
#224 = DIRECTION ( 'NONE',  ( -0.0000000000000000000, -0.0000000000000000000, 1.000000000000000000 ) ) ;
#225 = SURFACE_STYLE_USAGE ( .BOTH. , #211 ) ;
#226 = PRESENTATION_STYLE_ASSIGNMENT (( #225 ) ) ;
#227 = AXIS2_PLACEMENT_3D ( 'NONE', #228, #224, #214 ) ;
#228 = CARTESIAN_POINT ( 'NONE',  ( 0.0000000000000000000, 0.0000000000000000000, 4.308132045400366600 ) ) ;
#229 = SURFACE_STYLE_FILL_AREA ( #232 ) ;
#230 =( NAMED_UNIT ( * ) SI_UNIT ( $, .STERADIAN. ) SOLID_ANGLE_UNIT ( ) );
#231 = COLOUR_RGB ( '',0.9568627450980391500, 0.9490196078431372100, 0.9607843137254902200 ) ;
#232 = FILL_AREA_STYLE ('',( #235 ) ) ;
#233 = STYLED_ITEM ( 'NONE', ( #226 ), #123 ) ;
#234 = CARTESIAN_POINT ( 'NONE',  ( 0.0000000000000000000, 0.0000000000000000000, 0.6041170174631701500 ) ) ;
#235 = FILL_AREA_STYLE_COLOUR ( '', #231 ) ;
#236 =( GEOMETRIC_REPRESENTATION_CONTEXT ( 3 ) GLOBAL_UNCERTAINTY_ASSIGNED_CONTEXT ( ( #198 ) ) GLOBAL_UNIT_ASSIGNED_CONTEXT ( ( #196, #203, #206 ) ) REPRESENTATION_CONTEXT ( 'NONE', 'WORKASPACE' ) );
#237 = DIRECTION ( 'NONE',  ( 1.000000000000000000, 0.0000000000000000000, 0.0000000000000000000 ) ) ;
#238 = DIRECTION ( 'NONE',  ( -0.0000000000000000000, -0.0000000000000000000, 1.000000000000000000 ) ) ;
#239 = CARTESIAN_POINT ( 'NONE',  ( 0.0000000000000000000, 0.0000000000000000000, -1.389999999999999700 ) ) ;
#240 = AXIS2_PLACEMENT_3D ( 'NONE', #239, #238, #237 ) ;
#241 = CIRCLE ( 'NONE', #240, 12.69999999999999900 ) ;
#242 =( LENGTH_UNIT ( ) NAMED_UNIT ( * ) SI_UNIT ( .MILLI., .METRE. ) );
#243 = DIRECTION ( 'NONE',  ( -1.224606353822377300E-016, -1.000000000000000000, 0.0000000000000000000 ) ) ;
#244 = DIRECTION ( 'NONE',  ( -1.000000000000000000, 1.224606353822377300E-016, 0.0000000000000000000 ) ) ;
#245 = CARTESIAN_POINT ( 'NONE',  ( 0.0000000000000000000, 0.0000000000000000000, -101.6199999999999900 ) ) ;
#246 = AXIS2_PLACEMENT_3D ( 'NONE', #245, #244, #243 ) ;
#247 = CIRCLE ( 'NONE', #246, 103.0099999999999900 ) ;
#248 = LINE ( 'NONE', #251, #250 ) ;
#249 = DIRECTION ( 'NONE',  ( -0.0000000000000000000, -0.0000000000000000000, 1.000000000000000000 ) ) ;
#250 = VECTOR ( 'NONE', #249, 1000.000000000000000 ) ;
#251 = CARTESIAN_POINT ( 'NONE',  ( 12.69999999999999900, 0.0000000000000000000, 4.308132045400366600 ) ) ;
#252 = COLOUR_RGB ( '',0.9568627450980391500, 0.9490196078431372100, 0.9607843137254902200 ) ;
#253 = FACE_OUTER_BOUND ( 'NONE', #147, .T. ) ;
#254 = STYLED_ITEM ( 'NONE', ( #255 ), #139 ) ;
#255 = PRESENTATION_STYLE_ASSIGNMENT (( #256 ) ) ;
#256 = SURFACE_STYLE_USAGE ( .BOTH. , #257 ) ;
#257 = SURFACE_SIDE_STYLE ('',( #258 ) ) ;
#258 = SURFACE_STYLE_FILL_AREA ( #259 ) ;
#259 = FILL_AREA_STYLE ('',( #260 ) ) ;
#260 = FILL_AREA_STYLE_COLOUR ( '', #252 ) ;
#261 = CARTESIAN_POINT ( 'NONE',  ( -1.555250069354414300E-015, -12.69999999999996000, 0.6041170174631705900 ) ) ;
ENDSEC;
END-ISO-10303-21;
