ISO-10303-21;
HEADER;
FILE_DESCRIPTION (( 'STEP AP203' ),
    '1' );
FILE_NAME ('Web Model 68413.STEP',
    '2017-01-31T19:59:34',
    ( '' ),
    ( '' ),
    'SwSTEP 2.0',
    'SolidWorks 2016',
    '' );
FILE_SCHEMA (( 'CONFIG_CONTROL_DESIGN' ));
ENDSEC;

DATA;
#1 = ORIENTED_EDGE ( 'NONE', *, *, #3, .F. ) ;
#2 = APPROVAL_ROLE ( '' ) ;
#3 = EDGE_CURVE ( 'NONE', #173, #6, #212, .T. ) ;
#4 = APPROVAL_DATE_TIME ( #29, #188 ) ;
#5 = CC_DESIGN_PERSON_AND_ORGANIZATION_ASSIGNMENT ( #53, #155, ( #76 ) ) ;
#6 = VERTEX_POINT ( 'NONE', #233 ) ;
#7 = EDGE_CURVE ( 'NONE', #217, #85, #52, .T. ) ;
#8 = CALENDAR_DATE ( 2017, 31, 1 ) ;
#9 = ORIENTED_EDGE ( 'NONE', *, *, #49, .T. ) ;
#10 = PLANE ( 'NONE',  #34 ) ;
#11 = ORIENTED_EDGE ( 'NONE', *, *, #228, .T. ) ;
#12 = APPROVAL ( #48, 'UNSPECIFIED' ) ;
#13 = CARTESIAN_POINT ( 'NONE',  ( 37.50000000000000000, -24.99999999999999600, 0.0000000000000000000 ) ) ;
#14 = EDGE_CURVE ( 'NONE', #85, #184, #203, .T. ) ;
#15 = MANIFOLD_SOLID_BREP ( 'Extrude1', #116 ) ;
#16 = CARTESIAN_POINT ( 'NONE',  ( -37.50000000000000000, 24.99999999999999300, 3.000000000000000000 ) ) ;
#17 = PRODUCT ( 'Web Model 68413', 'Web Model 68413', '', ( #24 ) ) ;
#18 = LINE ( 'NONE', #169, #227 ) ;
#19 = CARTESIAN_POINT ( 'NONE',  ( -37.50000000000000000, -25.00000000000000700, 3.000000000000000000 ) ) ;
#20 = PERSON_AND_ORGANIZATION_ROLE ( 'design_owner' ) ;
#21 = ORIENTED_EDGE ( 'NONE', *, *, #154, .F. ) ;
#22 = CC_DESIGN_PERSON_AND_ORGANIZATION_ASSIGNMENT ( #72, #172, ( #180 ) ) ;
#23 = APPLICATION_CONTEXT ( 'configuration controlled 3d designs of mechanical parts and assemblies' ) ;
#24 = MECHANICAL_CONTEXT ( 'NONE', #128, 'mechanical' ) ;
#25 = PERSON_AND_ORGANIZATION ( #98, #224 ) ;
#26 = FACE_OUTER_BOUND ( 'NONE', #125, .T. ) ;
#27 = EDGE_LOOP ( 'NONE', ( #21, #47, #225, #1 ) ) ;
#28 = AXIS2_PLACEMENT_3D ( 'NONE', #75, #110, #130 ) ;
#29 = DATE_AND_TIME ( #63, #65 ) ;
#30 = FACE_OUTER_BOUND ( 'NONE', #27, .T. ) ;
#31 = FACE_OUTER_BOUND ( 'NONE', #90, .T. ) ;
#32 = CARTESIAN_POINT ( 'NONE',  ( -37.50000000000000000, 24.99999999999999300, 3.000000000000000000 ) ) ;
#33 = UNCERTAINTY_MEASURE_WITH_UNIT (LENGTH_MEASURE( 1.000000000000000100E-005 ), #114, 'distance_accuracy_value', 'NONE');
#34 = AXIS2_PLACEMENT_3D ( 'NONE', #56, #141, #55 ) ;
#35 = CARTESIAN_POINT ( 'NONE',  ( -37.50000000000000000, -25.00000000000000700, 3.000000000000000000 ) ) ;
#36 = DIRECTION ( 'NONE',  ( -0.0000000000000000000, 0.0000000000000000000, -1.000000000000000000 ) ) ;
#37 = APPROVAL_PERSON_ORGANIZATION ( #84, #188, #152 ) ;
#38 = ORIENTED_EDGE ( 'NONE', *, *, #179, .F. ) ;
#39 = DIRECTION ( 'NONE',  ( 0.0000000000000000000, -1.000000000000000000, 0.0000000000000000000 ) ) ;
#40 = DIRECTION ( 'NONE',  ( 0.0000000000000000000, 0.0000000000000000000, -1.000000000000000000 ) ) ;
#41 = CC_DESIGN_APPROVAL ( #182, ( #76 ) ) ;
#42 = VECTOR ( 'NONE', #94, 1000.000000000000000 ) ;
#43 = CARTESIAN_POINT ( 'NONE',  ( 37.50000000000000000, -24.99999999999999600, 3.000000000000000000 ) ) ;
#44 = CARTESIAN_POINT ( 'NONE',  ( 37.50000000000000000, -24.99999999999999600, 3.000000000000000000 ) ) ;
#45 = CC_DESIGN_APPROVAL ( #12, ( #180 ) ) ;
#46 = SHAPE_DEFINITION_REPRESENTATION ( #235, #143 ) ;
#47 = ORIENTED_EDGE ( 'NONE', *, *, #215, .F. ) ;
#48 = APPROVAL_STATUS ( 'not_yet_approved' ) ;
#49 = EDGE_CURVE ( 'NONE', #6, #54, #73, .T. ) ;
#50 = LINE ( 'NONE', #165, #177 ) ;
#51 = ADVANCED_FACE ( 'NONE', ( #31 ), #10, .F. ) ;
#52 = LINE ( 'NONE', #32, #210 ) ;
#53 = PERSON_AND_ORGANIZATION ( #98, #224 ) ;
#54 = VERTEX_POINT ( 'NONE', #216 ) ;
#55 = DIRECTION ( 'NONE',  ( 1.000000000000000000, 9.251858538542970300E-017, 0.0000000000000000000 ) ) ;
#56 = CARTESIAN_POINT ( 'NONE',  ( 37.50000000000000000, 25.00000000000000000, 3.000000000000000000 ) ) ;
#57 = PLANE ( 'NONE',  #28 ) ;
#58 = DIRECTION ( 'NONE',  ( -0.0000000000000000000, -0.0000000000000000000, -1.000000000000000000 ) ) ;
#59 = CARTESIAN_POINT ( 'NONE',  ( 37.50000000000000000, 25.00000000000000000, 0.0000000000000000000 ) ) ;
#60 = DIRECTION ( 'NONE',  ( -1.000000000000000000, -9.251858538542971600E-017, 0.0000000000000000000 ) ) ;
#61 = ORIENTED_EDGE ( 'NONE', *, *, #3, .T. ) ;
#62 = DIRECTION ( 'NONE',  ( 1.000000000000000000, 0.0000000000000000000, 0.0000000000000000000 ) ) ;
#63 = CALENDAR_DATE ( 2017, 31, 1 ) ;
#64 = PERSON_AND_ORGANIZATION_ROLE ( 'creator' ) ;
#65 = LOCAL_TIME ( 14, 59, 34.00000000000000000, #159 ) ;
#66 = ORIENTED_EDGE ( 'NONE', *, *, #14, .F. ) ;
#67 = CC_DESIGN_SECURITY_CLASSIFICATION ( #180, ( #76 ) ) ;
#68 = AXIS2_PLACEMENT_3D ( 'NONE', #107, #161, #202 ) ;
#69 = APPROVAL_DATE_TIME ( #135, #12 ) ;
#70 = ORIENTED_EDGE ( 'NONE', *, *, #154, .T. ) ;
#71 = DIRECTION ( 'NONE',  ( -0.0000000000000000000, 1.000000000000000000, -0.0000000000000000000 ) ) ;
#72 = PERSON_AND_ORGANIZATION ( #98, #224 ) ;
#73 = LINE ( 'NONE', #232, #221 ) ;
#74 = DIRECTION ( 'NONE',  ( 1.000000000000000000, 1.387778780781445700E-016, -0.0000000000000000000 ) ) ;
#75 = CARTESIAN_POINT ( 'NONE',  ( 37.50000000000000000, -24.99999999999999600, 3.000000000000000000 ) ) ;
#76 = PRODUCT_DEFINITION_FORMATION_WITH_SPECIFIED_SOURCE ( 'ANY', '', #17, .NOT_KNOWN. ) ;
#77 = DATE_AND_TIME ( #8, #156 ) ;
#78 = APPLICATION_PROTOCOL_DEFINITION ( 'international standard', 'config_control_design', 1994, #128 ) ;
#79 = ORIENTED_EDGE ( 'NONE', *, *, #14, .T. ) ;
#80 = APPROVAL_STATUS ( 'not_yet_approved' ) ;
#81 = VERTEX_POINT ( 'NONE', #166 ) ;
#82 = ADVANCED_FACE ( 'NONE', ( #170 ), #186, .F. ) ;
#83 = COORDINATED_UNIVERSAL_TIME_OFFSET ( 5, 0, .BEHIND. ) ;
#84 = PERSON_AND_ORGANIZATION ( #98, #224 ) ;
#85 = VERTEX_POINT ( 'NONE', #35 ) ;
#86 = VECTOR ( 'NONE', #204, 1000.000000000000000 ) ;
#87 = CARTESIAN_POINT ( 'NONE',  ( 37.50000000000000000, 25.00000000000000000, 3.000000000000000000 ) ) ;
#88 = DIRECTION ( 'NONE',  ( 0.0000000000000000000, 0.0000000000000000000, -1.000000000000000000 ) ) ;
#89 = PRODUCT_RELATED_PRODUCT_CATEGORY ( 'detail', '', ( #17 ) ) ;
#90 = EDGE_LOOP ( 'NONE', ( #97, #160, #38, #149 ) ) ;
#91 = DIRECTION ( 'NONE',  ( 1.000000000000000000, 0.0000000000000000000, -0.0000000000000000000 ) ) ;
#92 =( NAMED_UNIT ( * ) SI_UNIT ( $, .STERADIAN. ) SOLID_ANGLE_UNIT ( ) );
#93 = CARTESIAN_POINT ( 'NONE',  ( 37.50000000000000000, 25.00000000000000000, 3.000000000000000000 ) ) ;
#94 = DIRECTION ( 'NONE',  ( -0.0000000000000000000, -0.0000000000000000000, -1.000000000000000000 ) ) ;
#95 = PRODUCT_DEFINITION ( 'UNKNOWN', '', #76, #226 ) ;
#96 = LINE ( 'NONE', #189, #230 ) ;
#97 = ORIENTED_EDGE ( 'NONE', *, *, #215, .T. ) ;
#98 = PERSON ( 'UNSPECIFIED', 'UNSPECIFIED', 'UNSPECIFIED', ('UNSPECIFIED'), ('UNSPECIFIED'), ('UNSPECIFIED') ) ;
#99 = ADVANCED_FACE ( 'NONE', ( #163 ), #213, .F. ) ;
#100 = APPLICATION_PROTOCOL_DEFINITION ( 'international standard', 'config_control_design', 1994, #23 ) ;
#101 = AXIS2_PLACEMENT_3D ( 'NONE', #218, #40, #148 ) ;
#102 = PERSON_AND_ORGANIZATION ( #98, #224 ) ;
#103 = CC_DESIGN_PERSON_AND_ORGANIZATION_ASSIGNMENT ( #132, #20, ( #17 ) ) ;
#104 = LINE ( 'NONE', #87, #190 ) ;
#105 = ORIENTED_EDGE ( 'NONE', *, *, #121, .F. ) ;
#106 =( GEOMETRIC_REPRESENTATION_CONTEXT ( 3 ) GLOBAL_UNCERTAINTY_ASSIGNED_CONTEXT ( ( #33 ) ) GLOBAL_UNIT_ASSIGNED_CONTEXT ( ( #114, #129, #92 ) ) REPRESENTATION_CONTEXT ( 'NONE', 'WORKASPACE' ) );
#107 = CARTESIAN_POINT ( 'NONE',  ( 37.50000000000000000, 25.00000000000000000, 3.000000000000000000 ) ) ;
#108 = COORDINATED_UNIVERSAL_TIME_OFFSET ( 5, 0, .BEHIND. ) ;
#109 = ORIENTED_EDGE ( 'NONE', *, *, #185, .F. ) ;
#110 = DIRECTION ( 'NONE',  ( -1.387778780781445400E-016, 1.000000000000000000, 0.0000000000000000000 ) ) ;
#111 = EDGE_LOOP ( 'NONE', ( #70, #231, #178, #11 ) ) ;
#112 = AXIS2_PLACEMENT_3D ( 'NONE', #183, #88, #214 ) ;
#113 = CC_DESIGN_PERSON_AND_ORGANIZATION_ASSIGNMENT ( #25, #64, ( #76 ) ) ;
#114 =( LENGTH_UNIT ( ) NAMED_UNIT ( * ) SI_UNIT ( .MILLI., .METRE. ) );
#115 = DATE_AND_TIME ( #206, #151 ) ;
#116 = CLOSED_SHELL ( 'NONE', ( #99, #176, #82, #51, #136, #174 ) ) ;
#117 = DATE_AND_TIME ( #145, #194 ) ;
#118 = LINE ( 'NONE', #168, #124 ) ;
#119 = APPROVAL_DATE_TIME ( #77, #182 ) ;
#120 = ORIENTED_EDGE ( 'NONE', *, *, #200, .T. ) ;
#121 = EDGE_CURVE ( 'NONE', #184, #196, #104, .T. ) ;
#122 = CC_DESIGN_PERSON_AND_ORGANIZATION_ASSIGNMENT ( #123, #150, ( #95 ) ) ;
#123 = PERSON_AND_ORGANIZATION ( #98, #224 ) ;
#124 = VECTOR ( 'NONE', #146, 1000.000000000000000 ) ;
#125 = EDGE_LOOP ( 'NONE', ( #126, #79, #158, #131 ) ) ;
#126 = ORIENTED_EDGE ( 'NONE', *, *, #7, .T. ) ;
#127 = DIRECTION ( 'NONE',  ( 1.000000000000000000, 1.387778780781445700E-016, -0.0000000000000000000 ) ) ;
#128 = APPLICATION_CONTEXT ( 'configuration controlled 3d designs of mechanical parts and assemblies' ) ;
#129 =( NAMED_UNIT ( * ) PLANE_ANGLE_UNIT ( ) SI_UNIT ( $, .RADIAN. ) );
#130 = DIRECTION ( 'NONE',  ( -1.000000000000000000, -1.387778780781445400E-016, 0.0000000000000000000 ) ) ;
#131 = ORIENTED_EDGE ( 'NONE', *, *, #179, .T. ) ;
#132 = PERSON_AND_ORGANIZATION ( #98, #224 ) ;
#133 = APPROVAL_ROLE ( '' ) ;
#134 = EDGE_LOOP ( 'NONE', ( #9, #109, #105, #120 ) ) ;
#135 = DATE_AND_TIME ( #138, #236 ) ;
#136 = ADVANCED_FACE ( 'NONE', ( #26 ), #164, .F. ) ;
#137 = CC_DESIGN_APPROVAL ( #188, ( #95 ) ) ;
#138 = CALENDAR_DATE ( 2017, 31, 1 ) ;
#139 = DIRECTION ( 'NONE',  ( 0.0000000000000000000, -1.000000000000000000, 0.0000000000000000000 ) ) ;
#140 = EDGE_CURVE ( 'NONE', #85, #173, #157, .T. ) ;
#141 = DIRECTION ( 'NONE',  ( 9.251858538542970300E-017, -1.000000000000000000, 0.0000000000000000000 ) ) ;
#142 = CARTESIAN_POINT ( 'NONE',  ( 37.50000000000000000, -24.99999999999999600, 3.000000000000000000 ) ) ;
#143 = ADVANCED_BREP_SHAPE_REPRESENTATION ( 'Web Model 68413', ( #15, #237 ), #106 ) ;
#144 = DIRECTION ( 'NONE',  ( -0.0000000000000000000, -0.0000000000000000000, -1.000000000000000000 ) ) ;
#145 = CALENDAR_DATE ( 2017, 31, 1 ) ;
#146 = DIRECTION ( 'NONE',  ( -0.0000000000000000000, -0.0000000000000000000, -1.000000000000000000 ) ) ;
#147 = CARTESIAN_POINT ( 'NONE',  ( -37.50000000000000000, -25.00000000000000700, 0.0000000000000000000 ) ) ;
#148 = DIRECTION ( 'NONE',  ( -1.000000000000000000, 0.0000000000000000000, -0.0000000000000000000 ) ) ;
#149 = ORIENTED_EDGE ( 'NONE', *, *, #185, .T. ) ;
#150 = PERSON_AND_ORGANIZATION_ROLE ( 'creator' ) ;
#151 = LOCAL_TIME ( 14, 59, 34.00000000000000000, #83 ) ;
#152 = APPROVAL_ROLE ( '' ) ;
#153 = VECTOR ( 'NONE', #74, 1000.000000000000000 ) ;
#154 = EDGE_CURVE ( 'NONE', #81, #173, #50, .T. ) ;
#155 = PERSON_AND_ORGANIZATION_ROLE ( 'design_supplier' ) ;
#156 = LOCAL_TIME ( 14, 59, 34.00000000000000000, #219 ) ;
#157 = LINE ( 'NONE', #19, #199 ) ;
#158 = ORIENTED_EDGE ( 'NONE', *, *, #121, .T. ) ;
#159 = COORDINATED_UNIVERSAL_TIME_OFFSET ( 5, 0, .BEHIND. ) ;
#160 = ORIENTED_EDGE ( 'NONE', *, *, #228, .F. ) ;
#161 = DIRECTION ( 'NONE',  ( -1.000000000000000000, 0.0000000000000000000, 0.0000000000000000000 ) ) ;
#162 = APPROVAL_PERSON_ORGANIZATION ( #102, #12, #2 ) ;
#163 = FACE_OUTER_BOUND ( 'NONE', #111, .T. ) ;
#164 = PLANE ( 'NONE',  #112 ) ;
#165 = CARTESIAN_POINT ( 'NONE',  ( -37.50000000000000000, 24.99999999999999300, 0.0000000000000000000 ) ) ;
#166 = CARTESIAN_POINT ( 'NONE',  ( -37.50000000000000000, 24.99999999999999300, 0.0000000000000000000 ) ) ;
#167 = ORIENTED_EDGE ( 'NONE', *, *, #140, .T. ) ;
#168 = CARTESIAN_POINT ( 'NONE',  ( 37.50000000000000000, 25.00000000000000000, 3.000000000000000000 ) ) ;
#169 = CARTESIAN_POINT ( 'NONE',  ( 37.50000000000000000, 25.00000000000000000, 3.000000000000000000 ) ) ;
#170 = FACE_OUTER_BOUND ( 'NONE', #134, .T. ) ;
#171 = PLANE ( 'NONE',  #101 ) ;
#172 = PERSON_AND_ORGANIZATION_ROLE ( 'classification_officer' ) ;
#173 = VERTEX_POINT ( 'NONE', #147 ) ;
#174 = ADVANCED_FACE ( 'NONE', ( #30 ), #171, .T. ) ;
#175 = APPROVAL_STATUS ( 'not_yet_approved' ) ;
#176 = ADVANCED_FACE ( 'NONE', ( #195 ), #57, .F. ) ;
#177 = VECTOR ( 'NONE', #139, 1000.000000000000000 ) ;
#178 = ORIENTED_EDGE ( 'NONE', *, *, #7, .F. ) ;
#179 = EDGE_CURVE ( 'NONE', #196, #217, #18, .T. ) ;
#180 = SECURITY_CLASSIFICATION ( '', '', #192 ) ;
#181 = APPROVAL_PERSON_ORGANIZATION ( #187, #182, #133 ) ;
#182 = APPROVAL ( #175, 'UNSPECIFIED' ) ;
#183 = CARTESIAN_POINT ( 'NONE',  ( -37.50000000000000000, -25.00000000000000700, 3.000000000000000000 ) ) ;
#184 = VERTEX_POINT ( 'NONE', #43 ) ;
#185 = EDGE_CURVE ( 'NONE', #196, #54, #118, .T. ) ;
#186 = PLANE ( 'NONE',  #68 ) ;
#187 = PERSON_AND_ORGANIZATION ( #98, #224 ) ;
#188 = APPROVAL ( #80, 'UNSPECIFIED' ) ;
#189 = CARTESIAN_POINT ( 'NONE',  ( -37.50000000000000000, 24.99999999999999300, 3.000000000000000000 ) ) ;
#190 = VECTOR ( 'NONE', #229, 1000.000000000000000 ) ;
#191 = EDGE_LOOP ( 'NONE', ( #61, #223, #66, #167 ) ) ;
#192 = SECURITY_CLASSIFICATION_LEVEL ( 'unclassified' ) ;
#193 = DATE_TIME_ROLE ( 'classification_date' ) ;
#194 = LOCAL_TIME ( 14, 59, 34.00000000000000000, #211 ) ;
#195 = FACE_OUTER_BOUND ( 'NONE', #191, .T. ) ;
#196 = VERTEX_POINT ( 'NONE', #93 ) ;
#197 = AXIS2_PLACEMENT_3D ( 'NONE', #201, #91, #36 ) ;
#198 = CC_DESIGN_DATE_AND_TIME_ASSIGNMENT ( #115, #222, ( #95 ) ) ;
#199 = VECTOR ( 'NONE', #144, 1000.000000000000000 ) ;
#200 = EDGE_CURVE ( 'NONE', #184, #6, #209, .T. ) ;
#201 = CARTESIAN_POINT ( 'NONE',  ( -37.50000000000000000, 24.99999999999999300, 3.000000000000000000 ) ) ;
#202 = DIRECTION ( 'NONE',  ( 0.0000000000000000000, 0.0000000000000000000, 1.000000000000000000 ) ) ;
#203 = LINE ( 'NONE', #142, #153 ) ;
#204 = DIRECTION ( 'NONE',  ( -1.000000000000000000, -9.251858538542971600E-017, 0.0000000000000000000 ) ) ;
#205 = CARTESIAN_POINT ( 'NONE',  ( 0.0000000000000000000, 0.0000000000000000000, 0.0000000000000000000 ) ) ;
#206 = CALENDAR_DATE ( 2017, 31, 1 ) ;
#207 = CC_DESIGN_DATE_AND_TIME_ASSIGNMENT ( #117, #193, ( #180 ) ) ;
#208 = VECTOR ( 'NONE', #127, 1000.000000000000000 ) ;
#209 = LINE ( 'NONE', #44, #42 ) ;
#210 = VECTOR ( 'NONE', #39, 1000.000000000000000 ) ;
#211 = COORDINATED_UNIVERSAL_TIME_OFFSET ( 5, 0, .BEHIND. ) ;
#212 = LINE ( 'NONE', #13, #208 ) ;
#213 = PLANE ( 'NONE',  #197 ) ;
#214 = DIRECTION ( 'NONE',  ( -1.000000000000000000, 0.0000000000000000000, -0.0000000000000000000 ) ) ;
#215 = EDGE_CURVE ( 'NONE', #54, #81, #220, .T. ) ;
#216 = CARTESIAN_POINT ( 'NONE',  ( 37.50000000000000000, 25.00000000000000000, 0.0000000000000000000 ) ) ;
#217 = VERTEX_POINT ( 'NONE', #16 ) ;
#218 = CARTESIAN_POINT ( 'NONE',  ( -37.50000000000000000, -25.00000000000000700, 0.0000000000000000000 ) ) ;
#219 = COORDINATED_UNIVERSAL_TIME_OFFSET ( 5, 0, .BEHIND. ) ;
#220 = LINE ( 'NONE', #59, #86 ) ;
#221 = VECTOR ( 'NONE', #71, 1000.000000000000000 ) ;
#222 = DATE_TIME_ROLE ( 'creation_date' ) ;
#223 = ORIENTED_EDGE ( 'NONE', *, *, #200, .F. ) ;
#224 = ORGANIZATION ( 'UNSPECIFIED', 'UNSPECIFIED', '' ) ;
#225 = ORIENTED_EDGE ( 'NONE', *, *, #49, .F. ) ;
#226 = DESIGN_CONTEXT ( 'detailed design', #23, 'design' ) ;
#227 = VECTOR ( 'NONE', #60, 1000.000000000000000 ) ;
#228 = EDGE_CURVE ( 'NONE', #217, #81, #96, .T. ) ;
#229 = DIRECTION ( 'NONE',  ( -0.0000000000000000000, 1.000000000000000000, -0.0000000000000000000 ) ) ;
#230 = VECTOR ( 'NONE', #58, 1000.000000000000000 ) ;
#231 = ORIENTED_EDGE ( 'NONE', *, *, #140, .F. ) ;
#232 = CARTESIAN_POINT ( 'NONE',  ( 37.50000000000000000, 25.00000000000000000, 0.0000000000000000000 ) ) ;
#233 = CARTESIAN_POINT ( 'NONE',  ( 37.50000000000000000, -24.99999999999999600, 0.0000000000000000000 ) ) ;
#234 = DIRECTION ( 'NONE',  ( 0.0000000000000000000, 0.0000000000000000000, 1.000000000000000000 ) ) ;
#235 = PRODUCT_DEFINITION_SHAPE ( 'NONE', 'NONE',  #95 ) ;
#236 = LOCAL_TIME ( 14, 59, 34.00000000000000000, #108 ) ;
#237 = AXIS2_PLACEMENT_3D ( 'NONE', #205, #234, #62 ) ;
ENDSEC;
END-ISO-10303-21;
