ISO-10303-21;
HEADER;
FILE_DESCRIPTION (( 'STEP AP214' ),
    '1' );
FILE_NAME ('4484-E0W.STEP',
    '2009-12-21T17:06:14',
    ( ' ' ),
    ( ' ' ),
    'SwSTEP 2.0',
    'SolidWorks 2009',
    '' );
FILE_SCHEMA (( 'AUTOMOTIVE_DESIGN' ));
ENDSEC;

DATA;
#1 = MANIFOLD_SOLID_BREP ( 'NONE', #84 ) ;
#2 = ORIENTED_EDGE ( 'NONE', *, *, #25, .T. ) ;
#3 = ORIENTED_EDGE ( 'NONE', *, *, #4, .T. ) ;
#4 = EDGE_CURVE ( 'NONE', #23, #5, #58, .T. ) ;
#5 = VERTEX_POINT ( 'NONE', #53 ) ;
#6 = ORIENTED_EDGE ( 'NONE', *, *, #7, .T. ) ;
#7 = EDGE_CURVE ( 'NONE', #5, #8, #52, .T. ) ;
#8 = VERTEX_POINT ( 'NONE', #47 ) ;
#9 = ORIENTED_EDGE ( 'NONE', *, *, #10, .F. ) ;
#10 = EDGE_CURVE ( 'NONE', #26, #8, #45, .T. ) ;
#11 = ADVANCED_FACE ( 'NONE', ( #46 ), #105, .T. ) ;
#12 = EDGE_LOOP ( 'NONE', ( #13, #14, #16, #17 ) ) ;
#13 = ORIENTED_EDGE ( 'NONE', *, *, #7, .F. ) ;
#14 = ORIENTED_EDGE ( 'NONE', *, *, #15, .T. ) ;
#15 = EDGE_CURVE ( 'NONE', #5, #29, #104, .T. ) ;
#16 = ORIENTED_EDGE ( 'NONE', *, *, #28, .T. ) ;
#17 = ORIENTED_EDGE ( 'NONE', *, *, #10, .T. ) ;
#18 = ADVANCED_FACE ( 'NONE', ( #94 ), #131, .T. ) ;
#19 = EDGE_CURVE ( 'NONE', #74, #20, #130, .T. ) ;
#20 = VERTEX_POINT ( 'NONE', #121 ) ;
#21 = ORIENTED_EDGE ( 'NONE', *, *, #22, .T. ) ;
#22 = EDGE_CURVE ( 'NONE', #20, #23, #120, .T. ) ;
#23 = VERTEX_POINT ( 'NONE', #180 ) ;
#24 = ORIENTED_EDGE ( 'NONE', *, *, #25, .F. ) ;
#25 = EDGE_CURVE ( 'NONE', #26, #23, #179, .T. ) ;
#26 = VERTEX_POINT ( 'NONE', #174 ) ;
#27 = ORIENTED_EDGE ( 'NONE', *, *, #28, .F. ) ;
#28 = EDGE_CURVE ( 'NONE', #29, #26, #173, .T. ) ;
#29 = VERTEX_POINT ( 'NONE', #168 ) ;
#30 = ORIENTED_EDGE ( 'NONE', *, *, #31, .F. ) ;
#31 = EDGE_CURVE ( 'NONE', #74, #29, #166, .T. ) ;
#32 = ADVANCED_FACE ( 'NONE', ( #162 ), #202, .T. ) ;
#33 = EDGE_LOOP ( 'NONE', ( #2, #3, #6, #9 ) ) ;
#34 = ADVANCED_FACE ( 'NONE', ( #200 ), #181, .T. ) ;
#35 = EDGE_LOOP ( 'NONE', ( #36, #21, #24, #27, #30 ) ) ;
#36 = ORIENTED_EDGE ( 'NONE', *, *, #19, .T. ) ;
#37 = SURFACE_STYLE_FILL_AREA ( #38 ) ;
#38 = FILL_AREA_STYLE ('',( #39 ) ) ;
#39 = FILL_AREA_STYLE_COLOUR ( '', #40 ) ;
#40 = COLOUR_RGB ( '',0.9568627450980391500, 0.9490196078431372100, 0.9607843137254902200 ) ;
#41 = DIRECTION ( 'NONE',  ( 0.0000000000000000000, 0.0000000000000000000, -1.000000000000000000 ) ) ;
#42 = DIRECTION ( 'NONE',  ( 1.000000000000000000, 0.0000000000000000000, 0.0000000000000000000 ) ) ;
#43 = CARTESIAN_POINT ( 'NONE',  ( 0.0000000000000000000, 0.0000000000000000000, -6.760000000000002500 ) ) ;
#44 = AXIS2_PLACEMENT_3D ( 'NONE', #43, #42, #41 ) ;
#45 = CIRCLE ( 'NONE', #44, 10.30000000000000100 ) ;
#46 = FACE_OUTER_BOUND ( 'NONE', #12, .T. ) ;
#47 = CARTESIAN_POINT ( 'NONE',  ( 0.0000000000000000000, 6.306722722185243100E-016, 3.539999999999997800 ) ) ;
#48 = DIRECTION ( 'NONE',  ( -1.224606353822377300E-016, -1.000000000000000000, 0.0000000000000000000 ) ) ;
#49 = DIRECTION ( 'NONE',  ( -1.000000000000000000, 1.224606353822377300E-016, 0.0000000000000000000 ) ) ;
#50 = CARTESIAN_POINT ( 'NONE',  ( 0.0000000000000000000, 0.0000000000000000000, -6.760000000000002500 ) ) ;
#51 = AXIS2_PLACEMENT_3D ( 'NONE', #50, #49, #48 ) ;
#52 = CIRCLE ( 'NONE', #51, 10.30000000000000100 ) ;
#53 = CARTESIAN_POINT ( 'NONE',  ( -1.102145718440139700E-015, -9.000000000000001800, -1.751008085452725700 ) ) ;
#54 = DIRECTION ( 'NONE',  ( 1.000000000000000000, 0.0000000000000000000, 0.0000000000000000000 ) ) ;
#55 = DIRECTION ( 'NONE',  ( -0.0000000000000000000, -0.0000000000000000000, 1.000000000000000000 ) ) ;
#56 = CARTESIAN_POINT ( 'NONE',  ( 0.0000000000000000000, 0.0000000000000000000, -1.751008085452725700 ) ) ;
#57 = AXIS2_PLACEMENT_3D ( 'NONE', #56, #55, #54 ) ;
#58 = CIRCLE ( 'NONE', #57, 9.000000000000001800 ) ;
#59 =( GEOMETRIC_REPRESENTATION_CONTEXT ( 3 ) GLOBAL_UNCERTAINTY_ASSIGNED_CONTEXT ( ( #60 ) ) GLOBAL_UNIT_ASSIGNED_CONTEXT ( ( #63, #62, #61 ) ) REPRESENTATION_CONTEXT ( 'NONE', 'WORKASPACE' ) );
#60 = UNCERTAINTY_MEASURE_WITH_UNIT (LENGTH_MEASURE( 1.000000000000000100E-005 ), #63, 'distance_accuracy_value', 'NONE');
#61 =( NAMED_UNIT ( * ) SI_UNIT ( $, .STERADIAN. ) SOLID_ANGLE_UNIT ( ) );
#62 =( NAMED_UNIT ( * ) PLANE_ANGLE_UNIT ( ) SI_UNIT ( $, .RADIAN. ) );
#63 =( LENGTH_UNIT ( ) NAMED_UNIT ( * ) SI_UNIT ( .MILLI., .METRE. ) );
#64 = MECHANICAL_DESIGN_GEOMETRIC_PRESENTATION_REPRESENTATION (  '', ( #66 ), #59 ) ;
#65 = PRESENTATION_LAYER_ASSIGNMENT (  '', '', ( #66 ) ) ;
#66 = STYLED_ITEM ( 'NONE', ( #67 ), #1 ) ;
#67 = PRESENTATION_STYLE_ASSIGNMENT (( #68 ) ) ;
#68 = SURFACE_STYLE_USAGE ( .BOTH. , #69 ) ;
#69 = SURFACE_SIDE_STYLE ('',( #70 ) ) ;
#70 = SURFACE_STYLE_FILL_AREA ( #71 ) ;
#71 = FILL_AREA_STYLE ('',( #72 ) ) ;
#72 = FILL_AREA_STYLE_COLOUR ( '', #73 ) ;
#73 = COLOUR_RGB ( '',0.7960784313725489700, 0.8235294117647058400, 0.9372549019607843100 ) ;
#74 = VERTEX_POINT ( 'NONE', #231 ) ;
#75 = ORIENTED_EDGE ( 'NONE', *, *, #76, .T. ) ;
#76 = EDGE_CURVE ( 'NONE', #20, #74, #225, .T. ) ;
#77 = ORIENTED_EDGE ( 'NONE', *, *, #22, .F. ) ;
#78 = ORIENTED_EDGE ( 'NONE', *, *, #31, .T. ) ;
#79 = ORIENTED_EDGE ( 'NONE', *, *, #4, .F. ) ;
#80 = ADVANCED_FACE ( 'NONE', ( #220 ), #204, .F. ) ;
#81 = EDGE_LOOP ( 'NONE', ( #82, #83 ) ) ;
#82 = ORIENTED_EDGE ( 'NONE', *, *, #19, .F. ) ;
#83 = ORIENTED_EDGE ( 'NONE', *, *, #76, .F. ) ;
#84 = CLOSED_SHELL ( 'NONE', ( #34, #32, #11, #18, #80 ) ) ;
#85 = EDGE_LOOP ( 'NONE', ( #77, #75, #78, #86, #79 ) ) ;
#86 = ORIENTED_EDGE ( 'NONE', *, *, #15, .F. ) ;
#87 = STYLED_ITEM ( 'NONE', ( #88 ), #18 ) ;
#88 = PRESENTATION_STYLE_ASSIGNMENT (( #89 ) ) ;
#89 = SURFACE_STYLE_USAGE ( .BOTH. , #90 ) ;
#90 = SURFACE_SIDE_STYLE ('',( #91 ) ) ;
#91 = SURFACE_STYLE_FILL_AREA ( #92 ) ;
#92 = FILL_AREA_STYLE ('',( #99 ) ) ;
#93 = COLOUR_RGB ( '',0.9568627450980391500, 0.9490196078431372100, 0.9607843137254902200 ) ;
#94 = FACE_OUTER_BOUND ( 'NONE', #85, .T. ) ;
#95 = DIRECTION ( 'NONE',  ( 1.000000000000000000, 0.0000000000000000000, 0.0000000000000000000 ) ) ;
#96 = DIRECTION ( 'NONE',  ( -0.0000000000000000000, -0.0000000000000000000, 1.000000000000000000 ) ) ;
#97 = CARTESIAN_POINT ( 'NONE',  ( 0.0000000000000000000, 0.0000000000000000000, -1.751008085452725700 ) ) ;
#98 = AXIS2_PLACEMENT_3D ( 'NONE', #97, #96, #95 ) ;
#99 = FILL_AREA_STYLE_COLOUR ( '', #93 ) ;
#100 = DIRECTION ( 'NONE',  ( 0.0000000000000000000, 1.000000000000000000, 0.0000000000000000000 ) ) ;
#101 = DIRECTION ( 'NONE',  ( -1.000000000000000000, 0.0000000000000000000, 0.0000000000000000000 ) ) ;
#102 = CARTESIAN_POINT ( 'NONE',  ( 0.0000000000000000000, 0.0000000000000000000, -6.760000000000002500 ) ) ;
#103 = AXIS2_PLACEMENT_3D ( 'NONE', #102, #101, #100 ) ;
#104 = CIRCLE ( 'NONE', #98, 9.000000000000001800 ) ;
#105 = SPHERICAL_SURFACE ( 'NONE', #103, 10.30000000000000100 ) ;
#106 =( GEOMETRIC_REPRESENTATION_CONTEXT ( 3 ) GLOBAL_UNCERTAINTY_ASSIGNED_CONTEXT ( ( #107 ) ) GLOBAL_UNIT_ASSIGNED_CONTEXT ( ( #110, #109, #108 ) ) REPRESENTATION_CONTEXT ( 'NONE', 'WORKASPACE' ) );
#107 = UNCERTAINTY_MEASURE_WITH_UNIT (LENGTH_MEASURE( 1.000000000000000100E-005 ), #110, 'distance_accuracy_value', 'NONE');
#108 =( NAMED_UNIT ( * ) SI_UNIT ( $, .STERADIAN. ) SOLID_ANGLE_UNIT ( ) );
#109 =( NAMED_UNIT ( * ) PLANE_ANGLE_UNIT ( ) SI_UNIT ( $, .RADIAN. ) );
#110 =( LENGTH_UNIT ( ) NAMED_UNIT ( * ) SI_UNIT ( .MILLI., .METRE. ) );
#111 = MECHANICAL_DESIGN_GEOMETRIC_PRESENTATION_REPRESENTATION (  '', ( #113 ), #106 ) ;
#112 = PRESENTATION_LAYER_ASSIGNMENT (  '', '', ( #113 ) ) ;
#113 = STYLED_ITEM ( 'NONE', ( #114 ), #11 ) ;
#114 = PRESENTATION_STYLE_ASSIGNMENT (( #115 ) ) ;
#115 = SURFACE_STYLE_USAGE ( .BOTH. , #116 ) ;
#116 = SURFACE_SIDE_STYLE ('',( #37 ) ) ;
#117 = DIRECTION ( 'NONE',  ( -0.0000000000000000000, -0.0000000000000000000, 1.000000000000000000 ) ) ;
#118 = VECTOR ( 'NONE', #117, 1000.000000000000000 ) ;
#119 = CARTESIAN_POINT ( 'NONE',  ( -9.000000000000001800, 1.102145718440139700E-015, 4.308132045400366600 ) ) ;
#120 = LINE ( 'NONE', #119, #118 ) ;
#121 = CARTESIAN_POINT ( 'NONE',  ( -9.000000000000001800, 1.102145718440139700E-015, -3.539999999999999600 ) ) ;
#122 = DIRECTION ( 'NONE',  ( 1.000000000000000000, 0.0000000000000000000, 0.0000000000000000000 ) ) ;
#123 = DIRECTION ( 'NONE',  ( -0.0000000000000000000, -0.0000000000000000000, 1.000000000000000000 ) ) ;
#124 = CARTESIAN_POINT ( 'NONE',  ( 0.0000000000000000000, 0.0000000000000000000, -3.539999999999999600 ) ) ;
#125 = AXIS2_PLACEMENT_3D ( 'NONE', #124, #123, #122 ) ;
#126 = DIRECTION ( 'NONE',  ( 1.000000000000000000, 0.0000000000000000000, 0.0000000000000000000 ) ) ;
#127 = DIRECTION ( 'NONE',  ( -0.0000000000000000000, -0.0000000000000000000, 1.000000000000000000 ) ) ;
#128 = CARTESIAN_POINT ( 'NONE',  ( 0.0000000000000000000, 0.0000000000000000000, 4.308132045400366600 ) ) ;
#129 = AXIS2_PLACEMENT_3D ( 'NONE', #128, #127, #126 ) ;
#130 = CIRCLE ( 'NONE', #125, 9.000000000000001800 ) ;
#131 = CYLINDRICAL_SURFACE ( 'NONE', #129, 9.000000000000001800 ) ;
#132 =( GEOMETRIC_REPRESENTATION_CONTEXT ( 3 ) GLOBAL_UNCERTAINTY_ASSIGNED_CONTEXT ( ( #133 ) ) GLOBAL_UNIT_ASSIGNED_CONTEXT ( ( #136, #135, #134 ) ) REPRESENTATION_CONTEXT ( 'NONE', 'WORKASPACE' ) );
#133 = UNCERTAINTY_MEASURE_WITH_UNIT (LENGTH_MEASURE( 1.000000000000000100E-005 ), #136, 'distance_accuracy_value', 'NONE');
#134 =( NAMED_UNIT ( * ) SI_UNIT ( $, .STERADIAN. ) SOLID_ANGLE_UNIT ( ) );
#135 =( NAMED_UNIT ( * ) PLANE_ANGLE_UNIT ( ) SI_UNIT ( $, .RADIAN. ) );
#136 =( LENGTH_UNIT ( ) NAMED_UNIT ( * ) SI_UNIT ( .MILLI., .METRE. ) );
#137 = MECHANICAL_DESIGN_GEOMETRIC_PRESENTATION_REPRESENTATION (  '', ( #87 ), #132 ) ;
#138 = PRESENTATION_LAYER_ASSIGNMENT (  '', '', ( #87 ) ) ;
#139 = PRODUCT_DEFINITION_SHAPE ( 'NONE', 'NONE',  #142 ) ;
#140 = PRODUCT_RELATED_PRODUCT_CATEGORY ( 'part', '', ( #146 ) ) ;
#141 = PRODUCT_DEFINITION_FORMATION_WITH_SPECIFIED_SOURCE ( 'ANY', '', #146, .NOT_KNOWN. ) ;
#142 = PRODUCT_DEFINITION ( 'UNKNOWN', '', #141, #143 ) ;
#143 = PRODUCT_DEFINITION_CONTEXT ( 'detailed design', #145, 'design' ) ;
#144 = APPLICATION_PROTOCOL_DEFINITION ( 'draft international standard', 'automotive_design', 1998, #145 ) ;
#145 = APPLICATION_CONTEXT ( 'automotive_design' ) ;
#146 = PRODUCT ( '4484-E0W', '4484-E0W', '', ( #147 ) ) ;
#147 = PRODUCT_CONTEXT ( 'NONE', #244, 'mechanical' ) ;
#148 = APPLICATION_PROTOCOL_DEFINITION ( 'draft international standard', 'automotive_design', 1998, #244 ) ;
#149 = UNCERTAINTY_MEASURE_WITH_UNIT (LENGTH_MEASURE( 1.000000000000000100E-005 ), #152, 'distance_accuracy_value', 'NONE');
#150 =( NAMED_UNIT ( * ) SI_UNIT ( $, .STERADIAN. ) SOLID_ANGLE_UNIT ( ) );
#151 =( NAMED_UNIT ( * ) PLANE_ANGLE_UNIT ( ) SI_UNIT ( $, .RADIAN. ) );
#152 =( LENGTH_UNIT ( ) NAMED_UNIT ( * ) SI_UNIT ( .MILLI., .METRE. ) );
#153 = MECHANICAL_DESIGN_GEOMETRIC_PRESENTATION_REPRESENTATION (  '', ( #155 ), #203 ) ;
#154 = PRESENTATION_LAYER_ASSIGNMENT (  '', '', ( #155 ) ) ;
#155 = STYLED_ITEM ( 'NONE', ( #156 ), #32 ) ;
#156 = PRESENTATION_STYLE_ASSIGNMENT (( #157 ) ) ;
#157 = SURFACE_STYLE_USAGE ( .BOTH. , #158 ) ;
#158 = SURFACE_SIDE_STYLE ('',( #159 ) ) ;
#159 = SURFACE_STYLE_FILL_AREA ( #160 ) ;
#160 = FILL_AREA_STYLE ('',( #167 ) ) ;
#161 = COLOUR_RGB ( '',0.9568627450980391500, 0.9490196078431372100, 0.9607843137254902200 ) ;
#162 = FACE_OUTER_BOUND ( 'NONE', #33, .T. ) ;
#163 = DIRECTION ( 'NONE',  ( -0.0000000000000000000, -0.0000000000000000000, 1.000000000000000000 ) ) ;
#164 = VECTOR ( 'NONE', #163, 1000.000000000000000 ) ;
#165 = CARTESIAN_POINT ( 'NONE',  ( 9.000000000000001800, 0.0000000000000000000, 4.308132045400366600 ) ) ;
#166 = LINE ( 'NONE', #165, #164 ) ;
#167 = FILL_AREA_STYLE_COLOUR ( '', #161 ) ;
#168 = CARTESIAN_POINT ( 'NONE',  ( 9.000000000000001800, 0.0000000000000000000, -1.751008085452725700 ) ) ;
#169 = DIRECTION ( 'NONE',  ( 1.000000000000000000, 0.0000000000000000000, 0.0000000000000000000 ) ) ;
#170 = DIRECTION ( 'NONE',  ( -0.0000000000000000000, -0.0000000000000000000, 1.000000000000000000 ) ) ;
#171 = CARTESIAN_POINT ( 'NONE',  ( 0.0000000000000000000, 0.0000000000000000000, -1.751008085452725700 ) ) ;
#172 = AXIS2_PLACEMENT_3D ( 'NONE', #171, #170, #169 ) ;
#173 = CIRCLE ( 'NONE', #172, 9.000000000000001800 ) ;
#174 = CARTESIAN_POINT ( 'NONE',  ( 0.0000000000000000000, 9.000000000000001800, -1.751008085452725700 ) ) ;
#175 = DIRECTION ( 'NONE',  ( 1.000000000000000000, 0.0000000000000000000, 0.0000000000000000000 ) ) ;
#176 = DIRECTION ( 'NONE',  ( -0.0000000000000000000, -0.0000000000000000000, 1.000000000000000000 ) ) ;
#177 = CARTESIAN_POINT ( 'NONE',  ( 0.0000000000000000000, 0.0000000000000000000, -1.751008085452725700 ) ) ;
#178 = AXIS2_PLACEMENT_3D ( 'NONE', #177, #176, #175 ) ;
#179 = CIRCLE ( 'NONE', #178, 9.000000000000001800 ) ;
#180 = CARTESIAN_POINT ( 'NONE',  ( -9.000000000000001800, 1.102145718440139700E-015, -1.751008085452725700 ) ) ;
#181 = CYLINDRICAL_SURFACE ( 'NONE', #230, 9.000000000000001800 ) ;
#182 =( GEOMETRIC_REPRESENTATION_CONTEXT ( 3 ) GLOBAL_UNCERTAINTY_ASSIGNED_CONTEXT ( ( #183 ) ) GLOBAL_UNIT_ASSIGNED_CONTEXT ( ( #186, #185, #184 ) ) REPRESENTATION_CONTEXT ( 'NONE', 'WORKASPACE' ) );
#183 = UNCERTAINTY_MEASURE_WITH_UNIT (LENGTH_MEASURE( 1.000000000000000100E-005 ), #186, 'distance_accuracy_value', 'NONE');
#184 =( NAMED_UNIT ( * ) SI_UNIT ( $, .STERADIAN. ) SOLID_ANGLE_UNIT ( ) );
#185 =( NAMED_UNIT ( * ) PLANE_ANGLE_UNIT ( ) SI_UNIT ( $, .RADIAN. ) );
#186 =( LENGTH_UNIT ( ) NAMED_UNIT ( * ) SI_UNIT ( .MILLI., .METRE. ) );
#187 = MECHANICAL_DESIGN_GEOMETRIC_PRESENTATION_REPRESENTATION (  '', ( #189 ), #182 ) ;
#188 = PRESENTATION_LAYER_ASSIGNMENT (  '', '', ( #189 ) ) ;
#189 = STYLED_ITEM ( 'NONE', ( #190 ), #34 ) ;
#190 = PRESENTATION_STYLE_ASSIGNMENT (( #191 ) ) ;
#191 = SURFACE_STYLE_USAGE ( .BOTH. , #192 ) ;
#192 = SURFACE_SIDE_STYLE ('',( #193 ) ) ;
#193 = SURFACE_STYLE_FILL_AREA ( #194 ) ;
#194 = FILL_AREA_STYLE ('',( #201 ) ) ;
#195 = COLOUR_RGB ( '',0.9568627450980391500, 0.9490196078431372100, 0.9607843137254902200 ) ;
#196 = DIRECTION ( 'NONE',  ( 0.0000000000000000000, 1.000000000000000000, 0.0000000000000000000 ) ) ;
#197 = DIRECTION ( 'NONE',  ( -1.000000000000000000, 0.0000000000000000000, 0.0000000000000000000 ) ) ;
#198 = CARTESIAN_POINT ( 'NONE',  ( 0.0000000000000000000, 0.0000000000000000000, -6.760000000000002500 ) ) ;
#199 = AXIS2_PLACEMENT_3D ( 'NONE', #198, #197, #196 ) ;
#200 = FACE_OUTER_BOUND ( 'NONE', #35, .T. ) ;
#201 = FILL_AREA_STYLE_COLOUR ( '', #195 ) ;
#202 = SPHERICAL_SURFACE ( 'NONE', #199, 10.30000000000000100 ) ;
#203 =( GEOMETRIC_REPRESENTATION_CONTEXT ( 3 ) GLOBAL_UNCERTAINTY_ASSIGNED_CONTEXT ( ( #149 ) ) GLOBAL_UNIT_ASSIGNED_CONTEXT ( ( #152, #151, #150 ) ) REPRESENTATION_CONTEXT ( 'NONE', 'WORKASPACE' ) );
#204 = PLANE ( 'NONE',  #205 ) ;
#205 = AXIS2_PLACEMENT_3D ( 'NONE', #255, #254, #253 ) ;
#206 =( GEOMETRIC_REPRESENTATION_CONTEXT ( 3 ) GLOBAL_UNCERTAINTY_ASSIGNED_CONTEXT ( ( #207 ) ) GLOBAL_UNIT_ASSIGNED_CONTEXT ( ( #210, #209, #208 ) ) REPRESENTATION_CONTEXT ( 'NONE', 'WORKASPACE' ) );
#207 = UNCERTAINTY_MEASURE_WITH_UNIT (LENGTH_MEASURE( 1.000000000000000100E-005 ), #210, 'distance_accuracy_value', 'NONE');
#208 =( NAMED_UNIT ( * ) SI_UNIT ( $, .STERADIAN. ) SOLID_ANGLE_UNIT ( ) );
#209 =( NAMED_UNIT ( * ) PLANE_ANGLE_UNIT ( ) SI_UNIT ( $, .RADIAN. ) );
#210 =( LENGTH_UNIT ( ) NAMED_UNIT ( * ) SI_UNIT ( .MILLI., .METRE. ) );
#211 = MECHANICAL_DESIGN_GEOMETRIC_PRESENTATION_REPRESENTATION (  '', ( #213 ), #206 ) ;
#212 = PRESENTATION_LAYER_ASSIGNMENT (  '', '', ( #213 ) ) ;
#213 = STYLED_ITEM ( 'NONE', ( #214 ), #80 ) ;
#214 = PRESENTATION_STYLE_ASSIGNMENT (( #215 ) ) ;
#215 = SURFACE_STYLE_USAGE ( .BOTH. , #216 ) ;
#216 = SURFACE_SIDE_STYLE ('',( #217 ) ) ;
#217 = SURFACE_STYLE_FILL_AREA ( #218 ) ;
#218 = FILL_AREA_STYLE ('',( #226 ) ) ;
#219 = COLOUR_RGB ( '',0.9568627450980391500, 0.9490196078431372100, 0.9607843137254902200 ) ;
#220 = FACE_OUTER_BOUND ( 'NONE', #81, .T. ) ;
#221 = DIRECTION ( 'NONE',  ( 1.000000000000000000, 0.0000000000000000000, 0.0000000000000000000 ) ) ;
#222 = DIRECTION ( 'NONE',  ( -0.0000000000000000000, -0.0000000000000000000, 1.000000000000000000 ) ) ;
#223 = CARTESIAN_POINT ( 'NONE',  ( 0.0000000000000000000, 0.0000000000000000000, -3.539999999999999600 ) ) ;
#224 = AXIS2_PLACEMENT_3D ( 'NONE', #223, #222, #221 ) ;
#225 = CIRCLE ( 'NONE', #224, 9.000000000000001800 ) ;
#226 = FILL_AREA_STYLE_COLOUR ( '', #219 ) ;
#227 = DIRECTION ( 'NONE',  ( 1.000000000000000000, 0.0000000000000000000, 0.0000000000000000000 ) ) ;
#228 = DIRECTION ( 'NONE',  ( -0.0000000000000000000, -0.0000000000000000000, 1.000000000000000000 ) ) ;
#229 = CARTESIAN_POINT ( 'NONE',  ( 0.0000000000000000000, 0.0000000000000000000, 4.308132045400366600 ) ) ;
#230 = AXIS2_PLACEMENT_3D ( 'NONE', #229, #228, #227 ) ;
#231 = CARTESIAN_POINT ( 'NONE',  ( 9.000000000000001800, 0.0000000000000000000, -3.539999999999999600 ) ) ;
#232 =( NAMED_UNIT ( * ) PLANE_ANGLE_UNIT ( ) SI_UNIT ( $, .RADIAN. ) );
#233 =( LENGTH_UNIT ( ) NAMED_UNIT ( * ) SI_UNIT ( .MILLI., .METRE. ) );
#234 = MECHANICAL_DESIGN_GEOMETRIC_PRESENTATION_REPRESENTATION (  '', ( #236 ), #259 ) ;
#235 = PRESENTATION_LAYER_ASSIGNMENT (  '', '', ( #236 ) ) ;
#236 = STYLED_ITEM ( 'NONE', ( #237 ), #246 ) ;
#237 = PRESENTATION_STYLE_ASSIGNMENT (( #238 ) ) ;
#238 = SURFACE_STYLE_USAGE ( .BOTH. , #239 ) ;
#239 = SURFACE_SIDE_STYLE ('',( #240 ) ) ;
#240 = SURFACE_STYLE_FILL_AREA ( #241 ) ;
#241 = FILL_AREA_STYLE ('',( #242 ) ) ;
#242 = FILL_AREA_STYLE_COLOUR ( '', #243 ) ;
#243 = COLOUR_RGB ( '',0.7960784313725489700, 0.8235294117647058400, 0.9372549019607843100 ) ;
#244 = APPLICATION_CONTEXT ( 'automotive_design' ) ;
#245 = SHAPE_DEFINITION_REPRESENTATION ( #139, #246 ) ;
#246 = ADVANCED_BREP_SHAPE_REPRESENTATION ( '4484-E0W', ( #1, #258 ), #247 ) ;
#247 =( GEOMETRIC_REPRESENTATION_CONTEXT ( 3 ) GLOBAL_UNCERTAINTY_ASSIGNED_CONTEXT ( ( #248 ) ) GLOBAL_UNIT_ASSIGNED_CONTEXT ( ( #251, #250, #249 ) ) REPRESENTATION_CONTEXT ( 'NONE', 'WORKASPACE' ) );
#248 = UNCERTAINTY_MEASURE_WITH_UNIT (LENGTH_MEASURE( 1.000000000000000100E-005 ), #251, 'distance_accuracy_value', 'NONE');
#249 =( NAMED_UNIT ( * ) SI_UNIT ( $, .STERADIAN. ) SOLID_ANGLE_UNIT ( ) );
#250 =( NAMED_UNIT ( * ) PLANE_ANGLE_UNIT ( ) SI_UNIT ( $, .RADIAN. ) );
#251 =( LENGTH_UNIT ( ) NAMED_UNIT ( * ) SI_UNIT ( .MILLI., .METRE. ) );
#252 = CARTESIAN_POINT ( 'NONE',  ( 0.0000000000000000000, 0.0000000000000000000, 0.0000000000000000000 ) ) ;
#253 = DIRECTION ( 'NONE',  ( 1.000000000000000000, 0.0000000000000000000, 0.0000000000000000000 ) ) ;
#254 = DIRECTION ( 'NONE',  ( 0.0000000000000000000, -0.0000000000000000000, 1.000000000000000000 ) ) ;
#255 = CARTESIAN_POINT ( 'NONE',  ( 0.0000000000000000000, 1.300574900694489100E-015, -3.540000000000000000 ) ) ;
#256 = DIRECTION ( 'NONE',  ( 1.000000000000000000, 0.0000000000000000000, 0.0000000000000000000 ) ) ;
#257 = DIRECTION ( 'NONE',  ( 0.0000000000000000000, 0.0000000000000000000, 1.000000000000000000 ) ) ;
#258 = AXIS2_PLACEMENT_3D ( 'NONE', #252, #257, #256 ) ;
#259 =( GEOMETRIC_REPRESENTATION_CONTEXT ( 3 ) GLOBAL_UNCERTAINTY_ASSIGNED_CONTEXT ( ( #260 ) ) GLOBAL_UNIT_ASSIGNED_CONTEXT ( ( #233, #232, #261 ) ) REPRESENTATION_CONTEXT ( 'NONE', 'WORKASPACE' ) );
#260 = UNCERTAINTY_MEASURE_WITH_UNIT (LENGTH_MEASURE( 1.000000000000000100E-005 ), #233, 'distance_accuracy_value', 'NONE');
#261 =( NAMED_UNIT ( * ) SI_UNIT ( $, .STERADIAN. ) SOLID_ANGLE_UNIT ( ) );
ENDSEC;
END-ISO-10303-21;
