ISO-10303-21;
HEADER;
FILE_DESCRIPTION (( 'STEP AP203' ),
    '1' );
FILE_NAME ('TTN188114-E0W.STEP',
    '2019-10-24T18:02:48',
    ( '' ),
    ( '' ),
    'SwSTEP 2.0',
    'SolidWorks 2018',
    '' );
FILE_SCHEMA (( 'CONFIG_CONTROL_DESIGN' ));
ENDSEC;

DATA;
#1 = CARTESIAN_POINT ( 'NONE',  ( -6.099999999999998757, 0.0000000000000000000, 0.0000000000000000000 ) ) ;
#2 = AXIS2_PLACEMENT_3D ( 'NONE', #6, #96, #244 ) ;
#3 = ORIENTED_EDGE ( 'NONE', *, *, #257, .F. ) ;
#4 = CIRCLE ( 'NONE', #103, 6.099999999999998757 ) ;
#5 = ORIENTED_EDGE ( 'NONE', *, *, #41, .T. ) ;
#6 = CARTESIAN_POINT ( 'NONE',  ( 0.0000000000000000000, 0.0000000000000000000, 0.0000000000000000000 ) ) ;
#7 = VERTEX_POINT ( 'NONE', #243 ) ;
#8 = CARTESIAN_POINT ( 'NONE',  ( 0.0000000000000000000, 0.0000000000000000000, 0.0000000000000000000 ) ) ;
#9 = VERTEX_POINT ( 'NONE', #181 ) ;
#10 = EDGE_CURVE ( 'NONE', #252, #124, #82, .T. ) ;
#11 = DIRECTION ( 'NONE',  ( 0.0000000000000000000, 0.0000000000000000000, -1.000000000000000000 ) ) ;
#12 = CIRCLE ( 'NONE', #226, 6.349999999999993427 ) ;
#13 = ORIENTED_EDGE ( 'NONE', *, *, #259, .T. ) ;
#14 = APPROVAL ( #92, 'UNSPECIFIED' ) ;
#15 = ORIENTED_EDGE ( 'NONE', *, *, #253, .T. ) ;
#16 = MANIFOLD_SOLID_BREP ( 'TTN188119-1-solid1', #228 ) ;
#17 = CIRCLE ( 'NONE', #91, 6.349999999999993427 ) ;
#18 =( GEOMETRIC_REPRESENTATION_CONTEXT ( 3 ) GLOBAL_UNCERTAINTY_ASSIGNED_CONTEXT ( ( #215 ) ) GLOBAL_UNIT_ASSIGNED_CONTEXT ( ( #180, #49, #201 ) ) REPRESENTATION_CONTEXT ( 'NONE', 'WORKASPACE' ) );
#19 = CC_DESIGN_PERSON_AND_ORGANIZATION_ASSIGNMENT ( #90, #133, ( #126 ) ) ;
#20 = ADVANCED_FACE ( 'NONE', ( #59 ), #248, .T. ) ;
#21 = APPROVAL_PERSON_ORGANIZATION ( #34, #14, #217 ) ;
#22 = PERSON_AND_ORGANIZATION ( #100, #227 ) ;
#23 = ADVANCED_FACE ( 'NONE', ( #168 ), #69, .T. ) ;
#24 = PERSON_AND_ORGANIZATION ( #100, #227 ) ;
#25 = ORIENTED_EDGE ( 'NONE', *, *, #60, .T. ) ;
#26 = APPROVAL_ROLE ( '' ) ;
#27 = CARTESIAN_POINT ( 'NONE',  ( 0.0000000000000000000, 0.0000000000000000000, 40.91000000000000369 ) ) ;
#28 = AXIS2_PLACEMENT_3D ( 'NONE', #57, #229, #121 ) ;
#29 = EDGE_LOOP ( 'NONE', ( #3, #98, #233, #129 ) ) ;
#30 = APPROVAL_ROLE ( '' ) ;
#31 = DESIGN_CONTEXT ( 'detailed design', #160, 'design' ) ;
#32 = DIRECTION ( 'NONE',  ( -0.0000000000000000000, -0.0000000000000000000, 1.000000000000000000 ) ) ;
#33 = CARTESIAN_POINT ( 'NONE',  ( 0.0000000000000000000, 0.0000000000000000000, 0.0000000000000000000 ) ) ;
#34 = PERSON_AND_ORGANIZATION ( #100, #227 ) ;
#35 = AXIS2_PLACEMENT_3D ( 'NONE', #183, #11, #118 ) ;
#36 = DIRECTION ( 'NONE',  ( -0.0000000000000000000, -0.0000000000000000000, 1.000000000000000000 ) ) ;
#37 = DIRECTION ( 'NONE',  ( 1.000000000000000000, 0.0000000000000000000, 0.0000000000000000000 ) ) ;
#38 = CC_DESIGN_APPROVAL ( #256, ( #126 ) ) ;
#39 = AXIS2_PLACEMENT_3D ( 'NONE', #213, #64, #211 ) ;
#40 = VECTOR ( 'NONE', #196, 1000.000000000000114 ) ;
#41 = EDGE_CURVE ( 'NONE', #182, #252, #105, .T. ) ;
#42 = DIRECTION ( 'NONE',  ( 1.000000000000000000, 0.0000000000000000000, 0.0000000000000000000 ) ) ;
#43 = AXIS2_PLACEMENT_3D ( 'NONE', #225, #246, #142 ) ;
#44 = ADVANCED_FACE ( 'NONE', ( #214 ), #231, .T. ) ;
#45 = ORIENTED_EDGE ( 'NONE', *, *, #54, .T. ) ;
#46 = AXIS2_PLACEMENT_3D ( 'NONE', #74, #134, #95 ) ;
#47 = DIRECTION ( 'NONE',  ( -0.0000000000000000000, -0.0000000000000000000, 1.000000000000000000 ) ) ;
#48 = CC_DESIGN_SECURITY_CLASSIFICATION ( #83, ( #126 ) ) ;
#49 =( NAMED_UNIT ( * ) PLANE_ANGLE_UNIT ( ) SI_UNIT ( $, .RADIAN. ) );
#50 = VECTOR ( 'NONE', #32, 1000.000000000000000 ) ;
#51 = DIRECTION ( 'NONE',  ( 0.0000000000000000000, 0.0000000000000000000, -1.000000000000000000 ) ) ;
#52 = CC_DESIGN_PERSON_AND_ORGANIZATION_ASSIGNMENT ( #198, #112, ( #83 ) ) ;
#53 = CARTESIAN_POINT ( 'NONE',  ( 0.0000000000000000000, 0.0000000000000000000, 0.0000000000000000000 ) ) ;
#54 = EDGE_CURVE ( 'NONE', #182, #153, #269, .T. ) ;
#55 = ORIENTED_EDGE ( 'NONE', *, *, #259, .F. ) ;
#56 = SPHERICAL_SURFACE ( 'NONE', #63, 43.38000000000000256 ) ;
#57 = CARTESIAN_POINT ( 'NONE',  ( 0.0000000000000000000, 0.0000000000000000000, -2.002724220212352524 ) ) ;
#58 = CC_DESIGN_DATE_AND_TIME_ASSIGNMENT ( #143, #260, ( #123 ) ) ;
#59 = FACE_OUTER_BOUND ( 'NONE', #169, .T. ) ;
#60 = EDGE_CURVE ( 'NONE', #124, #252, #62, .T. ) ;
#61 = EDGE_LOOP ( 'NONE', ( #258, #237, #255, #193 ) ) ;
#62 = CIRCLE ( 'NONE', #35, 6.349999999999996092 ) ;
#63 = AXIS2_PLACEMENT_3D ( 'NONE', #111, #99, #223 ) ;
#64 = DIRECTION ( 'NONE',  ( 1.000000000000000000, 0.0000000000000000000, 0.0000000000000000000 ) ) ;
#65 = CALENDAR_DATE ( 2019, 24, 10 ) ;
#66 = ORIENTED_EDGE ( 'NONE', *, *, #253, .F. ) ;
#67 = CC_DESIGN_PERSON_AND_ORGANIZATION_ASSIGNMENT ( #22, #162, ( #123 ) ) ;
#68 = PRODUCT_DEFINITION_SHAPE ( 'NONE', 'NONE',  #123 ) ;
#69 = CONICAL_SURFACE ( 'NONE', #125, 6.099999999999998757, 0.7853981633974447263 ) ;
#70 = DATE_TIME_ROLE ( 'classification_date' ) ;
#71 = DIRECTION ( 'NONE',  ( -1.000000000000000000, 0.0000000000000000000, 0.0000000000000000000 ) ) ;
#72 = CARTESIAN_POINT ( 'NONE',  ( 6.349999999999996092, 0.0000000000000000000, 0.0000000000000000000 ) ) ;
#73 = VERTEX_POINT ( 'NONE', #263 ) ;
#74 = CARTESIAN_POINT ( 'NONE',  ( 0.0000000000000000000, 0.0000000000000000000, 0.0000000000000000000 ) ) ;
#75 = CIRCLE ( 'NONE', #101, 43.38000000000000256 ) ;
#76 = LOCAL_TIME ( 14, 2, 48.00000000000000000, #192 ) ;
#77 = ORIENTED_EDGE ( 'NONE', *, *, #10, .T. ) ;
#78 = APPROVAL ( #139, 'UNSPECIFIED' ) ;
#79 = DATE_AND_TIME ( #65, #119 ) ;
#80 = CC_DESIGN_APPROVAL ( #14, ( #83 ) ) ;
#81 = COORDINATED_UNIVERSAL_TIME_OFFSET ( 5, 0, .BEHIND. ) ;
#82 = CIRCLE ( 'NONE', #203, 6.349999999999996092 ) ;
#83 = SECURITY_CLASSIFICATION ( '', '', #220 ) ;
#84 = CIRCLE ( 'NONE', #28, 6.349999999999993427 ) ;
#85 = AXIS2_PLACEMENT_3D ( 'NONE', #27, #179, #240 ) ;
#86 = ADVANCED_FACE ( 'NONE', ( #170 ), #56, .T. ) ;
#87 = DATE_AND_TIME ( #106, #137 ) ;
#88 = PERSON_AND_ORGANIZATION ( #100, #227 ) ;
#89 = CC_DESIGN_PERSON_AND_ORGANIZATION_ASSIGNMENT ( #114, #241, ( #235 ) ) ;
#90 = PERSON_AND_ORGANIZATION ( #100, #227 ) ;
#91 = AXIS2_PLACEMENT_3D ( 'NONE', #97, #245, #37 ) ;
#92 = APPROVAL_STATUS ( 'not_yet_approved' ) ;
#93 = PRODUCT_RELATED_PRODUCT_CATEGORY ( 'detail', '', ( #235 ) ) ;
#94 = DIRECTION ( 'NONE',  ( -0.0000000000000000000, -0.0000000000000000000, 1.000000000000000000 ) ) ;
#95 = DIRECTION ( 'NONE',  ( 1.000000000000000000, 0.0000000000000000000, 0.0000000000000000000 ) ) ;
#96 = DIRECTION ( 'NONE',  ( 0.0000000000000000000, 0.0000000000000000000, 1.000000000000000000 ) ) ;
#97 = CARTESIAN_POINT ( 'NONE',  ( 0.0000000000000000000, 0.0000000000000000000, -2.002724220212352524 ) ) ;
#98 = ORIENTED_EDGE ( 'NONE', *, *, #224, .T. ) ;
#99 = DIRECTION ( 'NONE',  ( -1.000000000000000000, 0.0000000000000000000, 0.0000000000000000000 ) ) ;
#100 = PERSON ( 'UNSPECIFIED', 'UNSPECIFIED', 'UNSPECIFIED', ('UNSPECIFIED'), ('UNSPECIFIED'), ('UNSPECIFIED') ) ;
#101 = AXIS2_PLACEMENT_3D ( 'NONE', #238, #262, #136 ) ;
#102 = ORIENTED_EDGE ( 'NONE', *, *, #210, .F. ) ;
#103 = AXIS2_PLACEMENT_3D ( 'NONE', #208, #250, #270 ) ;
#104 = CARTESIAN_POINT ( 'NONE',  ( 0.0000000000000000000, 0.0000000000000000000, -2.002724220212352524 ) ) ;
#105 = LINE ( 'NONE', #72, #50 ) ;
#106 = CALENDAR_DATE ( 2019, 24, 10 ) ;
#107 = VERTEX_POINT ( 'NONE', #116 ) ;
#108 = AXIS2_PLACEMENT_3D ( 'NONE', #53, #94, #261 ) ;
#109 = ADVANCED_FACE ( 'NONE', ( #219 ), #171, .T. ) ;
#110 = APPLICATION_PROTOCOL_DEFINITION ( 'international standard', 'config_control_design', 1994, #160 ) ;
#111 = CARTESIAN_POINT ( 'NONE',  ( 0.0000000000000000000, 0.0000000000000000000, 40.91000000000000369 ) ) ;
#112 = PERSON_AND_ORGANIZATION_ROLE ( 'classification_officer' ) ;
#113 = DIRECTION ( 'NONE',  ( -1.000000000000000000, 0.0000000000000000000, 0.0000000000000000000 ) ) ;
#114 = PERSON_AND_ORGANIZATION ( #100, #227 ) ;
#115 = APPLICATION_CONTEXT ( 'configuration controlled 3d designs of mechanical parts and assemblies' ) ;
#116 = CARTESIAN_POINT ( 'NONE',  ( 6.099999999999998757, 7.623426324692271256E-16, 0.0000000000000000000 ) ) ;
#117 = EDGE_CURVE ( 'NONE', #222, #182, #84, .T. ) ;
#118 = DIRECTION ( 'NONE',  ( -1.000000000000000000, 0.0000000000000000000, 0.0000000000000000000 ) ) ;
#119 = LOCAL_TIME ( 14, 2, 48.00000000000000000, #178 ) ;
#120 = ORIENTED_EDGE ( 'NONE', *, *, #242, .T. ) ;
#121 = DIRECTION ( 'NONE',  ( 1.000000000000000000, 0.0000000000000000000, 0.0000000000000000000 ) ) ;
#122 = CARTESIAN_POINT ( 'NONE',  ( -6.349999999999996092, 7.776507174585689205E-16, -0.2499999999999993616 ) ) ;
#123 = PRODUCT_DEFINITION ( 'UNKNOWN', '', #126, #31 ) ;
#124 = VERTEX_POINT ( 'NONE', #122 ) ;
#125 = AXIS2_PLACEMENT_3D ( 'NONE', #8, #51, #113 ) ;
#126 = PRODUCT_DEFINITION_FORMATION_WITH_SPECIFIED_SOURCE ( 'ANY', '', #235, .NOT_KNOWN. ) ;
#127 = COORDINATED_UNIVERSAL_TIME_OFFSET ( 5, 0, .BEHIND. ) ;
#128 = CARTESIAN_POINT ( 'NONE',  ( 6.349999999999996092, 0.0000000000000000000, -0.2499999999999993616 ) ) ;
#129 = ORIENTED_EDGE ( 'NONE', *, *, #117, .F. ) ;
#130 = VECTOR ( 'NONE', #166, 1000.000000000000114 ) ;
#131 = ORIENTED_EDGE ( 'NONE', *, *, #236, .F. ) ;
#132 = EDGE_CURVE ( 'NONE', #153, #7, #17, .T. ) ;
#133 = PERSON_AND_ORGANIZATION_ROLE ( 'creator' ) ;
#134 = DIRECTION ( 'NONE',  ( -0.0000000000000000000, -0.0000000000000000000, 1.000000000000000000 ) ) ;
#135 = LOCAL_TIME ( 14, 2, 48.00000000000000000, #254 ) ;
#136 = DIRECTION ( 'NONE',  ( -1.224646799147353207E-16, -1.000000000000000000, 0.0000000000000000000 ) ) ;
#137 = LOCAL_TIME ( 14, 2, 48.00000000000000000, #127 ) ;
#138 = EDGE_LOOP ( 'NONE', ( #55, #264, #187, #5, #77 ) ) ;
#139 = APPROVAL_STATUS ( 'not_yet_approved' ) ;
#140 = DIRECTION ( 'NONE',  ( 0.0000000000000000000, 0.0000000000000000000, -1.000000000000000000 ) ) ;
#141 = MECHANICAL_CONTEXT ( 'NONE', #115, 'mechanical' ) ;
#142 = DIRECTION ( 'NONE',  ( -1.000000000000000000, 0.0000000000000000000, 0.0000000000000000000 ) ) ;
#143 = DATE_AND_TIME ( #152, #156 ) ;
#144 = ORIENTED_EDGE ( 'NONE', *, *, #10, .F. ) ;
#145 = CC_DESIGN_APPROVAL ( #78, ( #123 ) ) ;
#146 = CARTESIAN_POINT ( 'NONE',  ( 0.0000000000000000000, 0.0000000000000000000, -2.002724220212352524 ) ) ;
#147 = EDGE_CURVE ( 'NONE', #107, #9, #4, .T. ) ;
#148 = CARTESIAN_POINT ( 'NONE',  ( 0.0000000000000000000, 0.0000000000000000000, 0.0000000000000000000 ) ) ;
#149 = APPROVAL_PERSON_ORGANIZATION ( #209, #78, #30 ) ;
#150 = DIRECTION ( 'NONE',  ( 0.0000000000000000000, 0.0000000000000000000, -1.000000000000000000 ) ) ;
#151 = DATE_AND_TIME ( #155, #76 ) ;
#152 = CALENDAR_DATE ( 2019, 24, 10 ) ;
#153 = VERTEX_POINT ( 'NONE', #185 ) ;
#154 = VECTOR ( 'NONE', #47, 1000.000000000000000 ) ;
#155 = CALENDAR_DATE ( 2019, 24, 10 ) ;
#156 = LOCAL_TIME ( 14, 2, 48.00000000000000000, #81 ) ;
#157 = ORIENTED_EDGE ( 'NONE', *, *, #147, .T. ) ;
#158 = ADVANCED_FACE ( 'NONE', ( #204 ), #249, .T. ) ;
#159 = APPROVAL_STATUS ( 'not_yet_approved' ) ;
#160 = APPLICATION_CONTEXT ( 'configuration controlled 3d designs of mechanical parts and assemblies' ) ;
#161 = APPLICATION_PROTOCOL_DEFINITION ( 'international standard', 'config_control_design', 1994, #115 ) ;
#162 = PERSON_AND_ORGANIZATION_ROLE ( 'creator' ) ;
#163 = APPROVAL_DATE_TIME ( #268, #14 ) ;
#164 = CIRCLE ( 'NONE', #108, 6.099999999999998757 ) ;
#165 = AXIS2_PLACEMENT_3D ( 'NONE', #146, #188, #167 ) ;
#166 = DIRECTION ( 'NONE',  ( 0.7071067811865451302, 8.659560562354904508E-17, -0.7071067811865500152 ) ) ;
#167 = DIRECTION ( 'NONE',  ( 1.000000000000000000, 0.0000000000000000000, 0.0000000000000000000 ) ) ;
#168 = FACE_OUTER_BOUND ( 'NONE', #61, .T. ) ;
#169 = EDGE_LOOP ( 'NONE', ( #197, #176, #131, #271 ) ) ;
#170 = FACE_OUTER_BOUND ( 'NONE', #29, .T. ) ;
#171 = CYLINDRICAL_SURFACE ( 'NONE', #194, 6.349999999999996092 ) ;
#172 = DIRECTION ( 'NONE',  ( -1.000000000000000000, 0.0000000000000000000, -0.0000000000000000000 ) ) ;
#173 = CC_DESIGN_DATE_AND_TIME_ASSIGNMENT ( #79, #70, ( #83 ) ) ;
#174 = DIRECTION ( 'NONE',  ( -0.0000000000000000000, -0.0000000000000000000, 1.000000000000000000 ) ) ;
#175 = EDGE_LOOP ( 'NONE', ( #15, #157 ) ) ;
#176 = ORIENTED_EDGE ( 'NONE', *, *, #257, .T. ) ;
#177 = SHAPE_DEFINITION_REPRESENTATION ( #68, #266 ) ;
#178 = COORDINATED_UNIVERSAL_TIME_OFFSET ( 5, 0, .BEHIND. ) ;
#179 = DIRECTION ( 'NONE',  ( -1.000000000000000000, 0.0000000000000000000, 0.0000000000000000000 ) ) ;
#180 =( LENGTH_UNIT ( ) NAMED_UNIT ( * ) SI_UNIT ( .MILLI., .METRE. ) );
#181 = CARTESIAN_POINT ( 'NONE',  ( -6.099999999999998757, 0.0000000000000000000, 0.0000000000000000000 ) ) ;
#182 = VERTEX_POINT ( 'NONE', #186 ) ;
#183 = CARTESIAN_POINT ( 'NONE',  ( 0.0000000000000000000, 0.0000000000000000000, -0.2499999999999993616 ) ) ;
#184 = CIRCLE ( 'NONE', #39, 43.38000000000000256 ) ;
#185 = CARTESIAN_POINT ( 'NONE',  ( 0.0000000000000000000, 6.350000000000001421, -2.002724220212352524 ) ) ;
#186 = CARTESIAN_POINT ( 'NONE',  ( 6.349999999999993427, 0.0000000000000000000, -2.002724220212352524 ) ) ;
#187 = ORIENTED_EDGE ( 'NONE', *, *, #117, .T. ) ;
#188 = DIRECTION ( 'NONE',  ( -0.0000000000000000000, -0.0000000000000000000, 1.000000000000000000 ) ) ;
#189 = APPROVAL_DATE_TIME ( #151, #256 ) ;
#190 = ORIENTED_EDGE ( 'NONE', *, *, #41, .F. ) ;
#191 = LINE ( 'NONE', #1, #40 ) ;
#192 = COORDINATED_UNIVERSAL_TIME_OFFSET ( 5, 0, .BEHIND. ) ;
#193 = ORIENTED_EDGE ( 'NONE', *, *, #242, .F. ) ;
#194 = AXIS2_PLACEMENT_3D ( 'NONE', #33, #36, #205 ) ;
#195 = LINE ( 'NONE', #207, #130 ) ;
#196 = DIRECTION ( 'NONE',  ( -0.7071067811865451302, 0.0000000000000000000, -0.7071067811865500152 ) ) ;
#197 = ORIENTED_EDGE ( 'NONE', *, *, #224, .F. ) ;
#198 = PERSON_AND_ORGANIZATION ( #100, #227 ) ;
#199 = EDGE_LOOP ( 'NONE', ( #102, #66, #120, #144 ) ) ;
#200 = CARTESIAN_POINT ( 'NONE',  ( -6.349999999999996092, 7.776507174585689205E-16, 0.0000000000000000000 ) ) ;
#201 =( NAMED_UNIT ( * ) SI_UNIT ( $, .STERADIAN. ) SOLID_ANGLE_UNIT ( ) );
#202 = CARTESIAN_POINT ( 'NONE',  ( 0.0000000000000000000, 0.0000000000000000000, -0.2499999999999993616 ) ) ;
#203 = AXIS2_PLACEMENT_3D ( 'NONE', #202, #140, #71 ) ;
#204 = FACE_OUTER_BOUND ( 'NONE', #199, .T. ) ;
#205 = DIRECTION ( 'NONE',  ( 1.000000000000000000, 0.0000000000000000000, 0.0000000000000000000 ) ) ;
#206 = EDGE_LOOP ( 'NONE', ( #45, #230, #13, #25, #190 ) ) ;
#207 = CARTESIAN_POINT ( 'NONE',  ( 6.099999999999998757, 7.470345474798853307E-16, 0.0000000000000000000 ) ) ;
#208 = CARTESIAN_POINT ( 'NONE',  ( 0.0000000000000000000, 0.0000000000000000000, 0.0000000000000000000 ) ) ;
#209 = PERSON_AND_ORGANIZATION ( #100, #227 ) ;
#210 = EDGE_CURVE ( 'NONE', #107, #252, #195, .T. ) ;
#211 = DIRECTION ( 'NONE',  ( 0.0000000000000000000, 0.0000000000000000000, -1.000000000000000000 ) ) ;
#212 = AXIS2_PLACEMENT_3D ( 'NONE', #148, #150, #172 ) ;
#213 = CARTESIAN_POINT ( 'NONE',  ( 0.0000000000000000000, 0.0000000000000000000, 40.91000000000000369 ) ) ;
#214 = FACE_OUTER_BOUND ( 'NONE', #206, .T. ) ;
#215 = UNCERTAINTY_MEASURE_WITH_UNIT (LENGTH_MEASURE( 1.000000000000000082E-05 ), #180, 'distance_accuracy_value', 'NONE');
#216 = ADVANCED_FACE ( 'NONE', ( #239 ), #267, .F. ) ;
#217 = APPROVAL_ROLE ( '' ) ;
#218 = CALENDAR_DATE ( 2019, 24, 10 ) ;
#219 = FACE_OUTER_BOUND ( 'NONE', #138, .T. ) ;
#220 = SECURITY_CLASSIFICATION_LEVEL ( 'unclassified' ) ;
#221 = PERSON_AND_ORGANIZATION_ROLE ( 'design_supplier' ) ;
#222 = VERTEX_POINT ( 'NONE', #265 ) ;
#223 = DIRECTION ( 'NONE',  ( 0.0000000000000000000, 1.000000000000000000, 0.0000000000000000000 ) ) ;
#224 = EDGE_CURVE ( 'NONE', #73, #153, #184, .T. ) ;
#225 = CARTESIAN_POINT ( 'NONE',  ( 0.0000000000000000000, 0.0000000000000000000, 0.0000000000000000000 ) ) ;
#226 = AXIS2_PLACEMENT_3D ( 'NONE', #104, #174, #42 ) ;
#227 = ORGANIZATION ( 'UNSPECIFIED', 'UNSPECIFIED', '' ) ;
#228 = CLOSED_SHELL ( 'NONE', ( #23, #20, #44, #216, #109, #86, #158 ) ) ;
#229 = DIRECTION ( 'NONE',  ( -0.0000000000000000000, -0.0000000000000000000, 1.000000000000000000 ) ) ;
#230 = ORIENTED_EDGE ( 'NONE', *, *, #132, .T. ) ;
#231 = CYLINDRICAL_SURFACE ( 'NONE', #46, 6.349999999999996092 ) ;
#232 = CC_DESIGN_PERSON_AND_ORGANIZATION_ASSIGNMENT ( #88, #221, ( #126 ) ) ;
#233 = ORIENTED_EDGE ( 'NONE', *, *, #54, .F. ) ;
#234 = LINE ( 'NONE', #200, #154 ) ;
#235 = PRODUCT ( 'TTN188114-E0W', 'TTN188114-E0W', '', ( #141 ) ) ;
#236 = EDGE_CURVE ( 'NONE', #7, #222, #12, .T. ) ;
#237 = ORIENTED_EDGE ( 'NONE', *, *, #210, .T. ) ;
#238 = CARTESIAN_POINT ( 'NONE',  ( 0.0000000000000000000, 0.0000000000000000000, 40.91000000000000369 ) ) ;
#239 = FACE_OUTER_BOUND ( 'NONE', #175, .T. ) ;
#240 = DIRECTION ( 'NONE',  ( 0.0000000000000000000, 1.000000000000000000, 0.0000000000000000000 ) ) ;
#241 = PERSON_AND_ORGANIZATION_ROLE ( 'design_owner' ) ;
#242 = EDGE_CURVE ( 'NONE', #9, #124, #191, .T. ) ;
#243 = CARTESIAN_POINT ( 'NONE',  ( -6.349999999999993427, 7.776507174585688219E-16, -2.002724220212352524 ) ) ;
#244 = DIRECTION ( 'NONE',  ( 1.000000000000000000, 0.0000000000000000000, 0.0000000000000000000 ) ) ;
#245 = DIRECTION ( 'NONE',  ( -0.0000000000000000000, -0.0000000000000000000, 1.000000000000000000 ) ) ;
#246 = DIRECTION ( 'NONE',  ( 0.0000000000000000000, 0.0000000000000000000, -1.000000000000000000 ) ) ;
#247 = APPROVAL_PERSON_ORGANIZATION ( #24, #256, #26 ) ;
#248 = SPHERICAL_SURFACE ( 'NONE', #85, 43.38000000000000256 ) ;
#249 = CONICAL_SURFACE ( 'NONE', #43, 6.099999999999998757, 0.7853981633974447263 ) ;
#250 = DIRECTION ( 'NONE',  ( -0.0000000000000000000, -0.0000000000000000000, 1.000000000000000000 ) ) ;
#251 = APPROVAL_DATE_TIME ( #87, #78 ) ;
#252 = VERTEX_POINT ( 'NONE', #128 ) ;
#253 = EDGE_CURVE ( 'NONE', #9, #107, #164, .T. ) ;
#254 = COORDINATED_UNIVERSAL_TIME_OFFSET ( 5, 0, .BEHIND. ) ;
#255 = ORIENTED_EDGE ( 'NONE', *, *, #60, .F. ) ;
#256 = APPROVAL ( #159, 'UNSPECIFIED' ) ;
#257 = EDGE_CURVE ( 'NONE', #73, #222, #75, .T. ) ;
#258 = ORIENTED_EDGE ( 'NONE', *, *, #147, .F. ) ;
#259 = EDGE_CURVE ( 'NONE', #7, #124, #234, .T. ) ;
#260 = DATE_TIME_ROLE ( 'creation_date' ) ;
#261 = DIRECTION ( 'NONE',  ( -1.000000000000000000, 0.0000000000000000000, 0.0000000000000000000 ) ) ;
#262 = DIRECTION ( 'NONE',  ( -1.000000000000000000, 1.224646799147353207E-16, 0.0000000000000000000 ) ) ;
#263 = CARTESIAN_POINT ( 'NONE',  ( 0.0000000000000000000, 2.656258907350609166E-15, -2.469999999999999751 ) ) ;
#264 = ORIENTED_EDGE ( 'NONE', *, *, #236, .T. ) ;
#265 = CARTESIAN_POINT ( 'NONE',  ( -7.776507174585694135E-16, -6.350000000000001421, -2.002724220212352524 ) ) ;
#266 = ADVANCED_BREP_SHAPE_REPRESENTATION ( 'TTN188114-E0W', ( #16, #2 ), #18 ) ;
#267 = PLANE ( 'NONE',  #212 ) ;
#268 = DATE_AND_TIME ( #218, #135 ) ;
#269 = CIRCLE ( 'NONE', #165, 6.349999999999993427 ) ;
#270 = DIRECTION ( 'NONE',  ( -1.000000000000000000, 0.0000000000000000000, 0.0000000000000000000 ) ) ;
#271 = ORIENTED_EDGE ( 'NONE', *, *, #132, .F. ) ;
ENDSEC;
END-ISO-10303-21;
