ISO-10303-21;
HEADER;
FILE_DESCRIPTION (( 'STEP AP203' ),
    '1' );
FILE_NAME ('Web Model 19837_19851.step',
    '2022-04-06T15:02:13',
    ( 'WC' ),
    ( 'Windows Central' ),
    'SwSTEP 2.0',
    'SolidWorks 2021',
    '' );
FILE_SCHEMA (( 'CONFIG_CONTROL_DESIGN' ));
ENDSEC;

DATA;
#1 = DIRECTION ( 'NONE',  ( 0.000000000000000000, 0.000000000000000000, 1.000000000000000000 ) ) ;
#2 = PRODUCT_DEFINITION_FORMATION_WITH_SPECIFIED_SOURCE ( 'ANY', '', #95, .NOT_KNOWN. ) ;
#3 = DIRECTION ( 'NONE',  ( -0.000000000000000000, -0.000000000000000000, -1.000000000000000000 ) ) ;
#4 = DATE_TIME_ROLE ( 'classification_date' ) ;
#5 = APPROVAL_ROLE ( '' ) ;
#6 = ORIENTED_EDGE ( 'NONE', *, *, #102, .F. ) ;
#7 = LOCAL_TIME ( 11, 2, 13.00000000000000000, #125 ) ;
#8 = CARTESIAN_POINT ( 'NONE',  ( 0.000000000000000000, 0.000000000000000000, 0.000000000000000000 ) ) ;
#9 = CARTESIAN_POINT ( 'NONE',  ( 0.000000000000000000, 0.000000000000000000, 0.000000000000000000 ) ) ;
#10 = CC_DESIGN_DATE_AND_TIME_ASSIGNMENT ( #139, #4, ( #122 ) ) ;
#11 = DATE_AND_TIME ( #40, #103 ) ;
#12 = ORIENTED_EDGE ( 'NONE', *, *, #71, .T. ) ;
#13 = PERSON_AND_ORGANIZATION_ROLE ( 'design_supplier' ) ;
#14 = ORIENTED_EDGE ( 'NONE', *, *, #59, .T. ) ;
#15 = PLANE ( 'NONE',  #136 ) ;
#16 = CIRCLE ( 'NONE', #79, 12.50000000000000000 ) ;
#17 = ADVANCED_FACE ( 'NONE', ( #98 ), #15, .T. ) ;
#18 = LOCAL_TIME ( 11, 2, 13.00000000000000000, #28 ) ;
#19 = CARTESIAN_POINT ( 'NONE',  ( 0.000000000000000000, 0.000000000000000000, 1.000000000000000000 ) ) ;
#20 = APPLICATION_PROTOCOL_DEFINITION ( 'international standard', 'config_control_design', 1994, #22 ) ;
#21 = CYLINDRICAL_SURFACE ( 'NONE', #165, 12.50000000000000000 ) ;
#22 = APPLICATION_CONTEXT ( 'configuration controlled 3d designs of mechanical parts and assemblies' ) ;
#23 = CARTESIAN_POINT ( 'NONE',  ( 0.000000000000000000, 0.000000000000000000, 0.000000000000000000 ) ) ;
#24 = APPROVAL_PERSON_ORGANIZATION ( #69, #63, #5 ) ;
#25 = DIRECTION ( 'NONE',  ( 0.000000000000000000, 0.000000000000000000, 1.000000000000000000 ) ) ;
#26 = APPROVAL_ROLE ( '' ) ;
#27 = COORDINATED_UNIVERSAL_TIME_OFFSET ( 5, 0, .BEHIND. ) ;
#28 = COORDINATED_UNIVERSAL_TIME_OFFSET ( 5, 0, .BEHIND. ) ;
#29 = CALENDAR_DATE ( 2022, 6, 4 ) ;
#30 = EDGE_LOOP ( 'NONE', ( #57, #60 ) ) ;
#31 = MANIFOLD_SOLID_BREP ( 'Boss-Extrude1', #89 ) ;
#32 = CC_DESIGN_PERSON_AND_ORGANIZATION_ASSIGNMENT ( #124, #140, ( #2 ) ) ;
#33 = CC_DESIGN_APPROVAL ( #50, ( #174 ) ) ;
#34 = LINE ( 'NONE', #123, #47 ) ;
#35 = DIRECTION ( 'NONE',  ( 0.000000000000000000, 0.000000000000000000, 1.000000000000000000 ) ) ;
#36 = CC_DESIGN_PERSON_AND_ORGANIZATION_ASSIGNMENT ( #65, #52, ( #95 ) ) ;
#37 =( NAMED_UNIT ( * ) PLANE_ANGLE_UNIT ( ) SI_UNIT ( $, .RADIAN. ) );
#38 = FACE_OUTER_BOUND ( 'NONE', #113, .T. ) ;
#39 = CIRCLE ( 'NONE', #46, 12.50000000000000000 ) ;
#40 = CALENDAR_DATE ( 2022, 6, 4 ) ;
#41 = APPROVAL_DATE_TIME ( #55, #145 ) ;
#42 = AXIS2_PLACEMENT_3D ( 'NONE', #163, #107, #64 ) ;
#43 = EDGE_LOOP ( 'NONE', ( #6, #129, #12, #87 ) ) ;
#44 = CC_DESIGN_PERSON_AND_ORGANIZATION_ASSIGNMENT ( #58, #13, ( #2 ) ) ;
#45 = CARTESIAN_POINT ( 'NONE',  ( 0.000000000000000000, 0.000000000000000000, 1.000000000000000000 ) ) ;
#46 = AXIS2_PLACEMENT_3D ( 'NONE', #146, #1, #120 ) ;
#47 = VECTOR ( 'NONE', #106, 1000.000000000000000 ) ;
#48 = MECHANICAL_CONTEXT ( 'NONE', #22, 'mechanical' ) ;
#49 = DIRECTION ( 'NONE',  ( 0.000000000000000000, 0.000000000000000000, 1.000000000000000000 ) ) ;
#50 = APPROVAL ( #51, 'UNSPECIFIED' ) ;
#51 = APPROVAL_STATUS ( 'not_yet_approved' ) ;
#52 = PERSON_AND_ORGANIZATION_ROLE ( 'design_owner' ) ;
#53 = CARTESIAN_POINT ( 'NONE',  ( 12.50000000000000000, 1.530808498934191521E-15, 0.000000000000000000 ) ) ;
#54 = APPROVAL_PERSON_ORGANIZATION ( #127, #145, #26 ) ;
#55 = DATE_AND_TIME ( #72, #62 ) ;
#56 = COORDINATED_UNIVERSAL_TIME_OFFSET ( 5, 0, .BEHIND. ) ;
#57 = ORIENTED_EDGE ( 'NONE', *, *, #142, .F. ) ;
#58 = PERSON_AND_ORGANIZATION ( #173, #132 ) ;
#59 = EDGE_CURVE ( 'NONE', #115, #73, #16, .T. ) ;
#60 = ORIENTED_EDGE ( 'NONE', *, *, #133, .F. ) ;
#61 = ORIENTED_EDGE ( 'NONE', *, *, #102, .T. ) ;
#62 = LOCAL_TIME ( 11, 2, 13.00000000000000000, #27 ) ;
#63 = APPROVAL ( #154, 'UNSPECIFIED' ) ;
#64 = DIRECTION ( 'NONE',  ( 1.000000000000000000, 0.000000000000000000, 0.000000000000000000 ) ) ;
#65 = PERSON_AND_ORGANIZATION ( #173, #132 ) ;
#66 = LOCAL_TIME ( 11, 2, 13.00000000000000000, #56 ) ;
#67 = DIRECTION ( 'NONE',  ( -1.000000000000000000, 0.000000000000000000, 0.000000000000000000 ) ) ;
#68 = DIRECTION ( 'NONE',  ( 1.000000000000000000, 0.000000000000000000, 0.000000000000000000 ) ) ;
#69 = PERSON_AND_ORGANIZATION ( #173, #132 ) ;
#70 = CIRCLE ( 'NONE', #42, 12.50000000000000000 ) ;
#71 = EDGE_CURVE ( 'NONE', #73, #85, #104, .T. ) ;
#72 = CALENDAR_DATE ( 2022, 6, 4 ) ;
#73 = VERTEX_POINT ( 'NONE', #150 ) ;
#74 = SECURITY_CLASSIFICATION_LEVEL ( 'unclassified' ) ;
#75 = CARTESIAN_POINT ( 'NONE',  ( 0.000000000000000000, 0.000000000000000000, 1.000000000000000000 ) ) ;
#76 = DESIGN_CONTEXT ( 'detailed design', #90, 'design' ) ;
#77 = VECTOR ( 'NONE', #3, 1000.000000000000000 ) ;
#78 = CC_DESIGN_DATE_AND_TIME_ASSIGNMENT ( #11, #93, ( #174 ) ) ;
#79 = AXIS2_PLACEMENT_3D ( 'NONE', #45, #156, #82 ) ;
#80 = DIRECTION ( 'NONE',  ( 1.000000000000000000, 0.000000000000000000, -0.000000000000000000 ) ) ;
#81 = CARTESIAN_POINT ( 'NONE',  ( 12.50000000000000000, 1.530808498934191521E-15, 1.000000000000000000 ) ) ;
#82 = DIRECTION ( 'NONE',  ( 1.000000000000000000, 0.000000000000000000, 0.000000000000000000 ) ) ;
#83 =( NAMED_UNIT ( * ) SI_UNIT ( $, .STERADIAN. ) SOLID_ANGLE_UNIT ( ) );
#84 = PERSON_AND_ORGANIZATION ( #173, #132 ) ;
#85 = VERTEX_POINT ( 'NONE', #137 ) ;
#86 = DATE_AND_TIME ( #138, #18 ) ;
#87 = ORIENTED_EDGE ( 'NONE', *, *, #142, .T. ) ;
#88 =( GEOMETRIC_REPRESENTATION_CONTEXT ( 3 ) GLOBAL_UNCERTAINTY_ASSIGNED_CONTEXT ( ( #116 ) ) GLOBAL_UNIT_ASSIGNED_CONTEXT ( ( #175, #37, #83 ) ) REPRESENTATION_CONTEXT ( 'NONE', 'WORKASPACE' ) );
#89 = CLOSED_SHELL ( 'NONE', ( #170, #147, #17, #94 ) ) ;
#90 = APPLICATION_CONTEXT ( 'configuration controlled 3d designs of mechanical parts and assemblies' ) ;
#91 = CYLINDRICAL_SURFACE ( 'NONE', #143, 12.50000000000000000 ) ;
#92 = PERSON_AND_ORGANIZATION ( #173, #132 ) ;
#93 = DATE_TIME_ROLE ( 'creation_date' ) ;
#94 = ADVANCED_FACE ( 'NONE', ( #134 ), #108, .F. ) ;
#95 = PRODUCT ( 'Web Model 19837_19851', 'Web Model 19837_19851', '', ( #48 ) ) ;
#96 = APPROVAL_STATUS ( 'not_yet_approved' ) ;
#97 = DATE_AND_TIME ( #29, #7 ) ;
#98 = FACE_OUTER_BOUND ( 'NONE', #141, .T. ) ;
#99 = PERSON_AND_ORGANIZATION ( #173, #132 ) ;
#100 = DIRECTION ( 'NONE',  ( 1.000000000000000000, 0.000000000000000000, -0.000000000000000000 ) ) ;
#101 = CC_DESIGN_APPROVAL ( #63, ( #2 ) ) ;
#102 = EDGE_CURVE ( 'NONE', #115, #118, #34, .T. ) ;
#103 = LOCAL_TIME ( 11, 2, 13.00000000000000000, #111 ) ;
#104 = LINE ( 'NONE', #159, #77 ) ;
#105 = DIRECTION ( 'NONE',  ( 1.000000000000000000, 0.000000000000000000, 0.000000000000000000 ) ) ;
#106 = DIRECTION ( 'NONE',  ( -0.000000000000000000, -0.000000000000000000, -1.000000000000000000 ) ) ;
#107 = DIRECTION ( 'NONE',  ( 0.000000000000000000, 0.000000000000000000, 1.000000000000000000 ) ) ;
#108 = PLANE ( 'NONE',  #153 ) ;
#109 = AXIS2_PLACEMENT_3D ( 'NONE', #23, #35, #68 ) ;
#110 = CC_DESIGN_PERSON_AND_ORGANIZATION_ASSIGNMENT ( #84, #171, ( #174 ) ) ;
#111 = COORDINATED_UNIVERSAL_TIME_OFFSET ( 5, 0, .BEHIND. ) ;
#112 = ORIENTED_EDGE ( 'NONE', *, *, #167, .T. ) ;
#113 = EDGE_LOOP ( 'NONE', ( #168, #61, #128, #126 ) ) ;
#114 = SHAPE_DEFINITION_REPRESENTATION ( #155, #117 ) ;
#115 = VERTEX_POINT ( 'NONE', #81 ) ;
#116 = UNCERTAINTY_MEASURE_WITH_UNIT (LENGTH_MEASURE( 1.000000000000000082E-05 ), #175, 'distance_accuracy_value', 'NONE');
#117 = ADVANCED_BREP_SHAPE_REPRESENTATION ( 'Web Model 19837_19851', ( #31, #109 ), #88 ) ;
#118 = VERTEX_POINT ( 'NONE', #53 ) ;
#119 = CIRCLE ( 'NONE', #131, 12.50000000000000000 ) ;
#120 = DIRECTION ( 'NONE',  ( 1.000000000000000000, 0.000000000000000000, 0.000000000000000000 ) ) ;
#121 = APPLICATION_PROTOCOL_DEFINITION ( 'international standard', 'config_control_design', 1994, #90 ) ;
#122 = SECURITY_CLASSIFICATION ( '', '', #74 ) ;
#123 = CARTESIAN_POINT ( 'NONE',  ( 12.50000000000000000, 1.530808498934191521E-15, 1.000000000000000000 ) ) ;
#124 = PERSON_AND_ORGANIZATION ( #173, #132 ) ;
#125 = COORDINATED_UNIVERSAL_TIME_OFFSET ( 5, 0, .BEHIND. ) ;
#126 = ORIENTED_EDGE ( 'NONE', *, *, #71, .F. ) ;
#127 = PERSON_AND_ORGANIZATION ( #173, #132 ) ;
#128 = ORIENTED_EDGE ( 'NONE', *, *, #133, .T. ) ;
#129 = ORIENTED_EDGE ( 'NONE', *, *, #167, .F. ) ;
#130 = CC_DESIGN_PERSON_AND_ORGANIZATION_ASSIGNMENT ( #99, #157, ( #122 ) ) ;
#131 = AXIS2_PLACEMENT_3D ( 'NONE', #8, #49, #105 ) ;
#132 = ORGANIZATION ( 'UNSPECIFIED', 'UNSPECIFIED', '' ) ;
#133 = EDGE_CURVE ( 'NONE', #118, #85, #70, .T. ) ;
#134 = FACE_OUTER_BOUND ( 'NONE', #30, .T. ) ;
#135 = CARTESIAN_POINT ( 'NONE',  ( 0.000000000000000000, 0.000000000000000000, 1.000000000000000000 ) ) ;
#136 = AXIS2_PLACEMENT_3D ( 'NONE', #75, #172, #100 ) ;
#137 = CARTESIAN_POINT ( 'NONE',  ( -12.50000000000000000, 0.000000000000000000, 0.000000000000000000 ) ) ;
#138 = CALENDAR_DATE ( 2022, 6, 4 ) ;
#139 = DATE_AND_TIME ( #151, #66 ) ;
#140 = PERSON_AND_ORGANIZATION_ROLE ( 'creator' ) ;
#141 = EDGE_LOOP ( 'NONE', ( #112, #14 ) ) ;
#142 = EDGE_CURVE ( 'NONE', #85, #118, #119, .T. ) ;
#143 = AXIS2_PLACEMENT_3D ( 'NONE', #135, #144, #67 ) ;
#144 = DIRECTION ( 'NONE',  ( -0.000000000000000000, -0.000000000000000000, -1.000000000000000000 ) ) ;
#145 = APPROVAL ( #96, 'UNSPECIFIED' ) ;
#146 = CARTESIAN_POINT ( 'NONE',  ( 0.000000000000000000, 0.000000000000000000, 1.000000000000000000 ) ) ;
#147 = ADVANCED_FACE ( 'NONE', ( #148 ), #91, .T. ) ;
#148 = FACE_OUTER_BOUND ( 'NONE', #43, .T. ) ;
#149 = DIRECTION ( 'NONE',  ( -0.000000000000000000, -0.000000000000000000, -1.000000000000000000 ) ) ;
#150 = CARTESIAN_POINT ( 'NONE',  ( -12.50000000000000000, 0.000000000000000000, 1.000000000000000000 ) ) ;
#151 = CALENDAR_DATE ( 2022, 6, 4 ) ;
#152 = APPROVAL_DATE_TIME ( #86, #50 ) ;
#153 = AXIS2_PLACEMENT_3D ( 'NONE', #9, #25, #80 ) ;
#154 = APPROVAL_STATUS ( 'not_yet_approved' ) ;
#155 = PRODUCT_DEFINITION_SHAPE ( 'NONE', 'NONE',  #174 ) ;
#156 = DIRECTION ( 'NONE',  ( 0.000000000000000000, 0.000000000000000000, 1.000000000000000000 ) ) ;
#157 = PERSON_AND_ORGANIZATION_ROLE ( 'classification_officer' ) ;
#158 = APPROVAL_PERSON_ORGANIZATION ( #92, #50, #166 ) ;
#159 = CARTESIAN_POINT ( 'NONE',  ( -12.50000000000000000, 0.000000000000000000, 1.000000000000000000 ) ) ;
#160 = PRODUCT_RELATED_PRODUCT_CATEGORY ( 'detail', '', ( #95 ) ) ;
#161 = DIRECTION ( 'NONE',  ( -1.000000000000000000, 0.000000000000000000, 0.000000000000000000 ) ) ;
#162 = CC_DESIGN_SECURITY_CLASSIFICATION ( #122, ( #2 ) ) ;
#163 = CARTESIAN_POINT ( 'NONE',  ( 0.000000000000000000, 0.000000000000000000, 0.000000000000000000 ) ) ;
#164 = CC_DESIGN_APPROVAL ( #145, ( #122 ) ) ;
#165 = AXIS2_PLACEMENT_3D ( 'NONE', #19, #149, #161 ) ;
#166 = APPROVAL_ROLE ( '' ) ;
#167 = EDGE_CURVE ( 'NONE', #73, #115, #39, .T. ) ;
#168 = ORIENTED_EDGE ( 'NONE', *, *, #59, .F. ) ;
#169 = APPROVAL_DATE_TIME ( #97, #63 ) ;
#170 = ADVANCED_FACE ( 'NONE', ( #38 ), #21, .T. ) ;
#171 = PERSON_AND_ORGANIZATION_ROLE ( 'creator' ) ;
#172 = DIRECTION ( 'NONE',  ( 0.000000000000000000, 0.000000000000000000, 1.000000000000000000 ) ) ;
#173 = PERSON ( 'UNSPECIFIED', 'UNSPECIFIED', 'UNSPECIFIED', ('UNSPECIFIED'), ('UNSPECIFIED'), ('UNSPECIFIED') ) ;
#174 = PRODUCT_DEFINITION ( 'UNKNOWN', '', #2, #76 ) ;
#175 =( LENGTH_UNIT ( ) NAMED_UNIT ( * ) SI_UNIT ( .MILLI., .METRE. ) );
ENDSEC;
END-ISO-10303-21;
