ISO-10303-21;
HEADER;
FILE_DESCRIPTION (( 'STEP AP203' ),
    '1' );
FILE_NAME ('Web Model 47126_47126.step',
    '2017-06-06T16:54:44',
    ( '' ),
    ( '' ),
    'SwSTEP 2.0',
    'SolidWorks 2016',
    '' );
FILE_SCHEMA (( 'CONFIG_CONTROL_DESIGN' ));
ENDSEC;

DATA;
#1 = ORIENTED_EDGE ( 'NONE', *, *, #30, .F. ) ;
#2 = ORIENTED_EDGE ( 'NONE', *, *, #121, .T. ) ;
#3 = VECTOR ( 'NONE', #80, 1000.000000000000000 ) ;
#4 = LINE ( 'NONE', #58, #254 ) ;
#5 = AXIS2_PLACEMENT_3D ( 'NONE', #212, #239, #293 ) ;
#6 = LINE ( 'NONE', #295, #23 ) ;
#7 = PERSON ( 'UNSPECIFIED', 'UNSPECIFIED', 'UNSPECIFIED', ('UNSPECIFIED'), ('UNSPECIFIED'), ('UNSPECIFIED') ) ;
#8 = COORDINATED_UNIVERSAL_TIME_OFFSET ( 5, 0, .BEHIND. ) ;
#9 = PERSON_AND_ORGANIZATION ( #7, #127 ) ;
#10 = CARTESIAN_POINT ( 'NONE',  ( 10.00000000000000000, -10.00000000000000000, 10.00000000000000000 ) ) ;
#11 = CARTESIAN_POINT ( 'NONE',  ( 0.0000000000000000000, 0.0000000000000000000, 10.00000000000000000 ) ) ;
#12 = DIRECTION ( 'NONE',  ( 0.0000000000000000000, 0.0000000000000000000, 1.000000000000000000 ) ) ;
#13 = ADVANCED_BREP_SHAPE_REPRESENTATION ( 'Web Model 47126_47126', ( #150, #35, #5 ), #244 ) ;
#14 = DIRECTION ( 'NONE',  ( 0.7071067811865474600, -0.7071067811865474600, 0.0000000000000000000 ) ) ;
#15 = APPROVAL_STATUS ( 'not_yet_approved' ) ;
#16 = DIRECTION ( 'NONE',  ( 1.000000000000000000, 0.0000000000000000000, 0.0000000000000000000 ) ) ;
#17 = CARTESIAN_POINT ( 'NONE',  ( 0.0000000000000000000, 0.0000000000000000000, 10.00000000000000000 ) ) ;
#18 = PLANE ( 'NONE',  #123 ) ;
#19 = CARTESIAN_POINT ( 'NONE',  ( 10.00000000000000000, 0.0000000000000000000, 10.00000000000000000 ) ) ;
#20 = CC_DESIGN_PERSON_AND_ORGANIZATION_ASSIGNMENT ( #55, #86, ( #301 ) ) ;
#21 = LOCAL_TIME ( 12, 54, 44.00000000000000000, #47 ) ;
#22 = APPROVAL_STATUS ( 'not_yet_approved' ) ;
#23 = VECTOR ( 'NONE', #109, 1000.000000000000000 ) ;
#24 = LOCAL_TIME ( 12, 54, 44.00000000000000000, #8 ) ;
#25 = ORIENTED_EDGE ( 'NONE', *, *, #131, .F. ) ;
#26 = ORIENTED_EDGE ( 'NONE', *, *, #173, .T. ) ;
#27 = PRODUCT_DEFINITION ( 'UNKNOWN', '', #116, #228 ) ;
#28 = EDGE_LOOP ( 'NONE', ( #91, #44, #275 ) ) ;
#29 = LINE ( 'NONE', #62, #3 ) ;
#30 = EDGE_CURVE ( 'NONE', #304, #320, #29, .T. ) ;
#31 = ADVANCED_FACE ( 'NONE', ( #68 ), #264, .T. ) ;
#32 = CARTESIAN_POINT ( 'NONE',  ( 10.00000000000000000, -10.00000000000000000, 10.00000000000000000 ) ) ;
#33 = DIRECTION ( 'NONE',  ( -0.7071067811865474600, 0.7071067811865474600, 0.0000000000000000000 ) ) ;
#34 = DIRECTION ( 'NONE',  ( 0.0000000000000000000, 1.000000000000000000, -0.0000000000000000000 ) ) ;
#35 = MANIFOLD_SOLID_BREP ( 'Boss-Extrude3', #302 ) ;
#36 = DIRECTION ( 'NONE',  ( 1.000000000000000000, 0.0000000000000000000, 0.0000000000000000000 ) ) ;
#37 = CARTESIAN_POINT ( 'NONE',  ( 10.00000000000000000, -10.00000000000000000, -10.00000000000000000 ) ) ;
#38 = APPROVAL_ROLE ( '' ) ;
#39 = DIRECTION ( 'NONE',  ( 1.000000000000000000, 0.0000000000000000000, 0.0000000000000000000 ) ) ;
#40 = LINE ( 'NONE', #272, #231 ) ;
#41 = CALENDAR_DATE ( 2017, 6, 6 ) ;
#42 = SECURITY_CLASSIFICATION_LEVEL ( 'unclassified' ) ;
#43 = EDGE_LOOP ( 'NONE', ( #277, #45, #174, #124 ) ) ;
#44 = ORIENTED_EDGE ( 'NONE', *, *, #153, .T. ) ;
#45 = ORIENTED_EDGE ( 'NONE', *, *, #50, .F. ) ;
#46 = VECTOR ( 'NONE', #81, 1000.000000000000000 ) ;
#47 = COORDINATED_UNIVERSAL_TIME_OFFSET ( 5, 0, .BEHIND. ) ;
#48 = VECTOR ( 'NONE', #36, 1000.000000000000000 ) ;
#49 = APPROVAL ( #15, 'UNSPECIFIED' ) ;
#50 = EDGE_CURVE ( 'NONE', #203, #320, #53, .T. ) ;
#51 = ORIENTED_EDGE ( 'NONE', *, *, #224, .F. ) ;
#52 = VECTOR ( 'NONE', #132, 1000.000000000000100 ) ;
#53 = LINE ( 'NONE', #159, #95 ) ;
#54 = LINE ( 'NONE', #17, #52 ) ;
#55 = PERSON_AND_ORGANIZATION ( #7, #127 ) ;
#56 = EDGE_LOOP ( 'NONE', ( #146, #151, #251, #169 ) ) ;
#57 = ADVANCED_FACE ( 'NONE', ( #241 ), #103, .F. ) ;
#58 = CARTESIAN_POINT ( 'NONE',  ( 0.0000000000000000000, 0.0000000000000000000, 10.00000000000000000 ) ) ;
#59 = ORIENTED_EDGE ( 'NONE', *, *, #79, .T. ) ;
#60 =( NAMED_UNIT ( * ) SI_UNIT ( $, .STERADIAN. ) SOLID_ANGLE_UNIT ( ) );
#61 = PRODUCT_RELATED_PRODUCT_CATEGORY ( 'detail', '', ( #301 ) ) ;
#62 = CARTESIAN_POINT ( 'NONE',  ( 10.00000000000000000, 0.0000000000000000000, -10.00000000000000000 ) ) ;
#63 = LOCAL_TIME ( 12, 54, 44.00000000000000000, #280 ) ;
#64 = CARTESIAN_POINT ( 'NONE',  ( 0.0000000000000000000, 0.0000000000000000000, 10.00000000000000000 ) ) ;
#65 = PLANE ( 'NONE',  #154 ) ;
#66 = DATE_TIME_ROLE ( 'creation_date' ) ;
#67 = DIRECTION ( 'NONE',  ( -0.0000000000000000000, -0.0000000000000000000, -1.000000000000000000 ) ) ;
#68 = FACE_OUTER_BOUND ( 'NONE', #56, .T. ) ;
#69 = DATE_AND_TIME ( #271, #24 ) ;
#70 = PLANE ( 'NONE',  #197 ) ;
#71 = CC_DESIGN_APPROVAL ( #49, ( #27 ) ) ;
#72 = EDGE_CURVE ( 'NONE', #300, #319, #257, .T. ) ;
#73 = APPROVAL_DATE_TIME ( #247, #129 ) ;
#74 = LINE ( 'NONE', #10, #307 ) ;
#75 = VECTOR ( 'NONE', #321, 1000.000000000000100 ) ;
#76 = ADVANCED_FACE ( 'NONE', ( #111 ), #106, .T. ) ;
#77 = CC_DESIGN_PERSON_AND_ORGANIZATION_ASSIGNMENT ( #249, #136, ( #27 ) ) ;
#78 = DIRECTION ( 'NONE',  ( 0.7071067811865474600, -0.7071067811865474600, 0.0000000000000000000 ) ) ;
#79 = EDGE_CURVE ( 'NONE', #227, #203, #248, .T. ) ;
#80 = DIRECTION ( 'NONE',  ( 0.0000000000000000000, 1.000000000000000000, -0.0000000000000000000 ) ) ;
#81 = DIRECTION ( 'NONE',  ( -0.0000000000000000000, -0.0000000000000000000, -1.000000000000000000 ) ) ;
#82 = CARTESIAN_POINT ( 'NONE',  ( 10.00000000000000000, -10.00000000000000000, 10.00000000000000000 ) ) ;
#83 = CARTESIAN_POINT ( 'NONE',  ( -10.00000000000000000, 10.00000000000000000, 10.00000000000000000 ) ) ;
#84 = VECTOR ( 'NONE', #134, 1000.000000000000000 ) ;
#85 = DIRECTION ( 'NONE',  ( -0.0000000000000000000, 0.0000000000000000000, 1.000000000000000000 ) ) ;
#86 = PERSON_AND_ORGANIZATION_ROLE ( 'design_owner' ) ;
#87 = EDGE_CURVE ( 'NONE', #300, #245, #201, .T. ) ;
#88 = DIRECTION ( 'NONE',  ( 0.0000000000000000000, -0.0000000000000000000, 1.000000000000000000 ) ) ;
#89 = LOCAL_TIME ( 12, 54, 44.00000000000000000, #225 ) ;
#90 = LOCAL_TIME ( 12, 54, 44.00000000000000000, #142 ) ;
#91 = ORIENTED_EDGE ( 'NONE', *, *, #117, .T. ) ;
#92 = FACE_OUTER_BOUND ( 'NONE', #137, .T. ) ;
#93 = CC_DESIGN_DATE_AND_TIME_ASSIGNMENT ( #195, #66, ( #27 ) ) ;
#94 = EDGE_CURVE ( 'NONE', #245, #172, #187, .T. ) ;
#95 = VECTOR ( 'NONE', #214, 1000.000000000000000 ) ;
#96 = FACE_OUTER_BOUND ( 'NONE', #192, .T. ) ;
#97 = EDGE_CURVE ( 'NONE', #120, #172, #40, .T. ) ;
#98 = ORIENTED_EDGE ( 'NONE', *, *, #97, .T. ) ;
#99 = EDGE_LOOP ( 'NONE', ( #188, #255, #229, #26 ) ) ;
#100 = ORIENTED_EDGE ( 'NONE', *, *, #72, .F. ) ;
#101 = DIRECTION ( 'NONE',  ( -0.7071067811865474600, 0.7071067811865474600, 0.0000000000000000000 ) ) ;
#102 =( LENGTH_UNIT ( ) NAMED_UNIT ( * ) SI_UNIT ( .MILLI., .METRE. ) );
#103 = PLANE ( 'NONE',  #105 ) ;
#104 = FACE_OUTER_BOUND ( 'NONE', #170, .T. ) ;
#105 = AXIS2_PLACEMENT_3D ( 'NONE', #64, #288, #33 ) ;
#106 = PLANE ( 'NONE',  #143 ) ;
#107 = ORIENTED_EDGE ( 'NONE', *, *, #145, .T. ) ;
#108 = CARTESIAN_POINT ( 'NONE',  ( -10.00000000000000000, 0.0000000000000000000, 10.00000000000000000 ) ) ;
#109 = DIRECTION ( 'NONE',  ( 0.0000000000000000000, 1.000000000000000000, -0.0000000000000000000 ) ) ;
#110 = PERSON_AND_ORGANIZATION_ROLE ( 'creator' ) ;
#111 = FACE_OUTER_BOUND ( 'NONE', #258, .T. ) ;
#112 = CALENDAR_DATE ( 2017, 6, 6 ) ;
#113 = DIRECTION ( 'NONE',  ( 1.000000000000000000, 0.0000000000000000000, 0.0000000000000000000 ) ) ;
#114 = ORIENTED_EDGE ( 'NONE', *, *, #138, .F. ) ;
#115 = EDGE_LOOP ( 'NONE', ( #303, #250, #210, #107 ) ) ;
#116 = PRODUCT_DEFINITION_FORMATION_WITH_SPECIFIED_SOURCE ( 'ANY', '', #301, .NOT_KNOWN. ) ;
#117 = EDGE_CURVE ( 'NONE', #120, #152, #6, .T. ) ;
#118 = LINE ( 'NONE', #317, #176 ) ;
#119 = APPROVAL_PERSON_ORGANIZATION ( #181, #129, #163 ) ;
#120 = VERTEX_POINT ( 'NONE', #269 ) ;
#121 = EDGE_CURVE ( 'NONE', #300, #120, #253, .T. ) ;
#122 = ORIENTED_EDGE ( 'NONE', *, *, #94, .F. ) ;
#123 = AXIS2_PLACEMENT_3D ( 'NONE', #266, #273, #88 ) ;
#124 = ORIENTED_EDGE ( 'NONE', *, *, #207, .T. ) ;
#125 = VECTOR ( 'NONE', #67, 1000.000000000000000 ) ;
#126 = DATE_AND_TIME ( #41, #63 ) ;
#127 = ORGANIZATION ( 'UNSPECIFIED', 'UNSPECIFIED', '' ) ;
#128 = ADVANCED_FACE ( 'NONE', ( #178 ), #221, .T. ) ;
#129 = APPROVAL ( #315, 'UNSPECIFIED' ) ;
#130 = DIRECTION ( 'NONE',  ( -0.0000000000000000000, 0.0000000000000000000, 1.000000000000000000 ) ) ;
#131 = EDGE_CURVE ( 'NONE', #281, #320, #205, .T. ) ;
#132 = DIRECTION ( 'NONE',  ( 0.7071067811865474600, -0.7071067811865474600, 0.0000000000000000000 ) ) ;
#133 = DIRECTION ( 'NONE',  ( 0.0000000000000000000, 1.000000000000000000, -0.0000000000000000000 ) ) ;
#134 = DIRECTION ( 'NONE',  ( -0.0000000000000000000, -0.0000000000000000000, -1.000000000000000000 ) ) ;
#135 = APPLICATION_CONTEXT ( 'configuration controlled 3d designs of mechanical parts and assemblies' ) ;
#136 = PERSON_AND_ORGANIZATION_ROLE ( 'creator' ) ;
#137 = EDGE_LOOP ( 'NONE', ( #25, #177, #298, #305 ) ) ;
#138 = EDGE_CURVE ( 'NONE', #265, #203, #118, .T. ) ;
#139 = DIRECTION ( 'NONE',  ( 1.000000000000000000, 0.0000000000000000000, 0.0000000000000000000 ) ) ;
#140 = PLANE ( 'NONE',  #215 ) ;
#141 = LINE ( 'NONE', #217, #198 ) ;
#142 = COORDINATED_UNIVERSAL_TIME_OFFSET ( 5, 0, .BEHIND. ) ;
#143 = AXIS2_PLACEMENT_3D ( 'NONE', #189, #85, #313 ) ;
#144 = PERSON_AND_ORGANIZATION ( #7, #127 ) ;
#145 = EDGE_CURVE ( 'NONE', #265, #281, #262, .T. ) ;
#146 = ORIENTED_EDGE ( 'NONE', *, *, #153, .F. ) ;
#147 = CC_DESIGN_APPROVAL ( #129, ( #116 ) ) ;
#148 = UNCERTAINTY_MEASURE_WITH_UNIT (LENGTH_MEASURE( 1.000000000000000100E-005 ), #102, 'distance_accuracy_value', 'NONE');
#149 = PRODUCT_DEFINITION_SHAPE ( 'NONE', 'NONE',  #27 ) ;
#150 = MANIFOLD_SOLID_BREP ( 'Boss-Extrude2', #312 ) ;
#151 = ORIENTED_EDGE ( 'NONE', *, *, #173, .F. ) ;
#152 = VERTEX_POINT ( 'NONE', #166 ) ;
#153 = EDGE_CURVE ( 'NONE', #152, #172, #182, .T. ) ;
#154 = AXIS2_PLACEMENT_3D ( 'NONE', #213, #242, #113 ) ;
#155 = APPROVAL_DATE_TIME ( #69, #49 ) ;
#156 = ADVANCED_FACE ( 'NONE', ( #222 ), #140, .F. ) ;
#157 = CARTESIAN_POINT ( 'NONE',  ( -10.00000000000000000, 10.00000000000000000, 10.00000000000000000 ) ) ;
#158 = CARTESIAN_POINT ( 'NONE',  ( -10.00000000000000000, -10.00000000000000000, 10.00000000000000000 ) ) ;
#159 = CARTESIAN_POINT ( 'NONE',  ( 10.00000000000000000, 10.00000000000000000, 10.00000000000000000 ) ) ;
#160 = DIRECTION ( 'NONE',  ( 0.0000000000000000000, -0.0000000000000000000, 1.000000000000000000 ) ) ;
#161 = VECTOR ( 'NONE', #274, 1000.000000000000000 ) ;
#162 =( NAMED_UNIT ( * ) PLANE_ANGLE_UNIT ( ) SI_UNIT ( $, .RADIAN. ) );
#163 = APPROVAL_ROLE ( '' ) ;
#164 = CARTESIAN_POINT ( 'NONE',  ( -10.00000000000000000, -10.00000000000000000, 10.00000000000000000 ) ) ;
#165 = CARTESIAN_POINT ( 'NONE',  ( 0.0000000000000000000, 0.0000000000000000000, -10.00000000000000000 ) ) ;
#166 = CARTESIAN_POINT ( 'NONE',  ( -10.00000000000000000, 10.00000000000000000, -10.00000000000000000 ) ) ;
#167 = CALENDAR_DATE ( 2017, 6, 6 ) ;
#168 = ORIENTED_EDGE ( 'NONE', *, *, #131, .T. ) ;
#169 = ORIENTED_EDGE ( 'NONE', *, *, #94, .T. ) ;
#170 = EDGE_LOOP ( 'NONE', ( #51, #168, #1 ) ) ;
#171 = CC_DESIGN_PERSON_AND_ORGANIZATION_ASSIGNMENT ( #144, #110, ( #116 ) ) ;
#172 = VERTEX_POINT ( 'NONE', #263 ) ;
#173 = EDGE_CURVE ( 'NONE', #319, #152, #283, .T. ) ;
#174 = ORIENTED_EDGE ( 'NONE', *, *, #79, .F. ) ;
#175 = SHAPE_DEFINITION_REPRESENTATION ( #149, #13 ) ;
#176 = VECTOR ( 'NONE', #16, 1000.000000000000000 ) ;
#177 = ORIENTED_EDGE ( 'NONE', *, *, #145, .F. ) ;
#178 = FACE_OUTER_BOUND ( 'NONE', #180, .T. ) ;
#179 = AXIS2_PLACEMENT_3D ( 'NONE', #240, #297, #139 ) ;
#180 = EDGE_LOOP ( 'NONE', ( #208, #59, #114 ) ) ;
#181 = PERSON_AND_ORGANIZATION ( #7, #127 ) ;
#182 = LINE ( 'NONE', #299, #75 ) ;
#183 = DATE_AND_TIME ( #318, #21 ) ;
#184 = ADVANCED_FACE ( 'NONE', ( #92 ), #18, .T. ) ;
#185 = CC_DESIGN_PERSON_AND_ORGANIZATION_ASSIGNMENT ( #282, #246, ( #116 ) ) ;
#186 = CARTESIAN_POINT ( 'NONE',  ( 0.0000000000000000000, -10.00000000000000000, 10.00000000000000000 ) ) ;
#187 = LINE ( 'NONE', #82, #84 ) ;
#188 = ORIENTED_EDGE ( 'NONE', *, *, #117, .F. ) ;
#189 = CARTESIAN_POINT ( 'NONE',  ( 0.0000000000000000000, 0.0000000000000000000, 10.00000000000000000 ) ) ;
#190 = APPLICATION_PROTOCOL_DEFINITION ( 'international standard', 'config_control_design', 1994, #270 ) ;
#191 = DIRECTION ( 'NONE',  ( 1.000000000000000000, 0.0000000000000000000, 0.0000000000000000000 ) ) ;
#192 = EDGE_LOOP ( 'NONE', ( #98, #122, #285, #2 ) ) ;
#193 = VECTOR ( 'NONE', #133, 1000.000000000000000 ) ;
#194 = EDGE_CURVE ( 'NONE', #319, #245, #4, .T. ) ;
#195 = DATE_AND_TIME ( #167, #89 ) ;
#196 = CARTESIAN_POINT ( 'NONE',  ( -0.0000000000000000000, 10.00000000000000000, -10.00000000000000000 ) ) ;
#197 = AXIS2_PLACEMENT_3D ( 'NONE', #108, #268, #12 ) ;
#198 = VECTOR ( 'NONE', #14, 1000.000000000000100 ) ;
#199 = APPROVAL_ROLE ( '' ) ;
#200 = PERSON_AND_ORGANIZATION ( #7, #127 ) ;
#201 = LINE ( 'NONE', #290, #48 ) ;
#202 = PERSON_AND_ORGANIZATION_ROLE ( 'classification_officer' ) ;
#203 = VERTEX_POINT ( 'NONE', #308 ) ;
#204 = VECTOR ( 'NONE', #39, 1000.000000000000000 ) ;
#205 = LINE ( 'NONE', #196, #204 ) ;
#206 = SECURITY_CLASSIFICATION ( '', '', #42 ) ;
#207 = EDGE_CURVE ( 'NONE', #227, #304, #74, .T. ) ;
#208 = ORIENTED_EDGE ( 'NONE', *, *, #236, .T. ) ;
#209 = VECTOR ( 'NONE', #34, 1000.000000000000000 ) ;
#210 = ORIENTED_EDGE ( 'NONE', *, *, #236, .F. ) ;
#211 = DIRECTION ( 'NONE',  ( 1.000000000000000000, 0.0000000000000000000, 0.0000000000000000000 ) ) ;
#212 = CARTESIAN_POINT ( 'NONE',  ( 0.0000000000000000000, 0.0000000000000000000, 0.0000000000000000000 ) ) ;
#213 = CARTESIAN_POINT ( 'NONE',  ( 0.0000000000000000000, 0.0000000000000000000, -10.00000000000000000 ) ) ;
#214 = DIRECTION ( 'NONE',  ( -0.0000000000000000000, -0.0000000000000000000, -1.000000000000000000 ) ) ;
#215 = AXIS2_PLACEMENT_3D ( 'NONE', #19, #238, #296 ) ;
#216 = APPROVAL_DATE_TIME ( #126, #256 ) ;
#217 = CARTESIAN_POINT ( 'NONE',  ( -0.0000000000000000000, 0.0000000000000000000, -10.00000000000000000 ) ) ;
#218 = APPROVAL_PERSON_ORGANIZATION ( #200, #256, #199 ) ;
#219 = ORIENTED_EDGE ( 'NONE', *, *, #194, .F. ) ;
#220 = MECHANICAL_CONTEXT ( 'NONE', #135, 'mechanical' ) ;
#221 = PLANE ( 'NONE',  #179 ) ;
#222 = FACE_OUTER_BOUND ( 'NONE', #43, .T. ) ;
#223 = CC_DESIGN_PERSON_AND_ORGANIZATION_ASSIGNMENT ( #9, #202, ( #206 ) ) ;
#224 = EDGE_CURVE ( 'NONE', #281, #304, #141, .T. ) ;
#225 = COORDINATED_UNIVERSAL_TIME_OFFSET ( 5, 0, .BEHIND. ) ;
#226 = AXIS2_PLACEMENT_3D ( 'NONE', #165, #130, #211 ) ;
#227 = VERTEX_POINT ( 'NONE', #230 ) ;
#228 = DESIGN_CONTEXT ( 'detailed design', #270, 'design' ) ;
#229 = ORIENTED_EDGE ( 'NONE', *, *, #72, .T. ) ;
#230 = CARTESIAN_POINT ( 'NONE',  ( 10.00000000000000000, -10.00000000000000000, 10.00000000000000000 ) ) ;
#231 = VECTOR ( 'NONE', #191, 1000.000000000000000 ) ;
#232 = ADVANCED_FACE ( 'NONE', ( #294 ), #65, .F. ) ;
#233 = CC_DESIGN_DATE_AND_TIME_ASSIGNMENT ( #183, #279, ( #206 ) ) ;
#234 = APPLICATION_PROTOCOL_DEFINITION ( 'international standard', 'config_control_design', 1994, #135 ) ;
#235 = CARTESIAN_POINT ( 'NONE',  ( 10.00000000000000000, 10.00000000000000000, -10.00000000000000000 ) ) ;
#236 = EDGE_CURVE ( 'NONE', #265, #227, #54, .T. ) ;
#237 = PERSON_AND_ORGANIZATION ( #7, #127 ) ;
#238 = DIRECTION ( 'NONE',  ( -1.000000000000000000, 0.0000000000000000000, 0.0000000000000000000 ) ) ;
#239 = DIRECTION ( 'NONE',  ( 0.0000000000000000000, 0.0000000000000000000, 1.000000000000000000 ) ) ;
#240 = CARTESIAN_POINT ( 'NONE',  ( 0.0000000000000000000, 0.0000000000000000000, 10.00000000000000000 ) ) ;
#241 = FACE_OUTER_BOUND ( 'NONE', #115, .T. ) ;
#242 = DIRECTION ( 'NONE',  ( -0.0000000000000000000, 0.0000000000000000000, 1.000000000000000000 ) ) ;
#243 = CARTESIAN_POINT ( 'NONE',  ( -10.00000000000000000, 10.00000000000000000, 10.00000000000000000 ) ) ;
#244 =( GEOMETRIC_REPRESENTATION_CONTEXT ( 3 ) GLOBAL_UNCERTAINTY_ASSIGNED_CONTEXT ( ( #148 ) ) GLOBAL_UNIT_ASSIGNED_CONTEXT ( ( #102, #162, #60 ) ) REPRESENTATION_CONTEXT ( 'NONE', 'WORKASPACE' ) );
#245 = VERTEX_POINT ( 'NONE', #32 ) ;
#246 = PERSON_AND_ORGANIZATION_ROLE ( 'design_supplier' ) ;
#247 = DATE_AND_TIME ( #112, #90 ) ;
#248 = LINE ( 'NONE', #292, #209 ) ;
#249 = PERSON_AND_ORGANIZATION ( #7, #127 ) ;
#250 = ORIENTED_EDGE ( 'NONE', *, *, #207, .F. ) ;
#251 = ORIENTED_EDGE ( 'NONE', *, *, #194, .T. ) ;
#252 = FACE_OUTER_BOUND ( 'NONE', #99, .T. ) ;
#253 = LINE ( 'NONE', #164, #125 ) ;
#254 = VECTOR ( 'NONE', #78, 1000.000000000000100 ) ;
#255 = ORIENTED_EDGE ( 'NONE', *, *, #121, .F. ) ;
#256 = APPROVAL ( #22, 'UNSPECIFIED' ) ;
#257 = LINE ( 'NONE', #267, #193 ) ;
#258 = EDGE_LOOP ( 'NONE', ( #100, #310, #219 ) ) ;
#259 = AXIS2_PLACEMENT_3D ( 'NONE', #186, #311, #160 ) ;
#260 = ADVANCED_FACE ( 'NONE', ( #252 ), #70, .T. ) ;
#261 = DIRECTION ( 'NONE',  ( -0.0000000000000000000, -0.0000000000000000000, -1.000000000000000000 ) ) ;
#262 = LINE ( 'NONE', #243, #161 ) ;
#263 = CARTESIAN_POINT ( 'NONE',  ( 10.00000000000000000, -10.00000000000000000, -10.00000000000000000 ) ) ;
#264 = PLANE ( 'NONE',  #291 ) ;
#265 = VERTEX_POINT ( 'NONE', #83 ) ;
#266 = CARTESIAN_POINT ( 'NONE',  ( 0.0000000000000000000, 10.00000000000000000, 10.00000000000000000 ) ) ;
#267 = CARTESIAN_POINT ( 'NONE',  ( -10.00000000000000000, 0.0000000000000000000, 10.00000000000000000 ) ) ;
#268 = DIRECTION ( 'NONE',  ( -1.000000000000000000, 0.0000000000000000000, 0.0000000000000000000 ) ) ;
#269 = CARTESIAN_POINT ( 'NONE',  ( -10.00000000000000000, -10.00000000000000000, -10.00000000000000000 ) ) ;
#270 = APPLICATION_CONTEXT ( 'configuration controlled 3d designs of mechanical parts and assemblies' ) ;
#271 = CALENDAR_DATE ( 2017, 6, 6 ) ;
#272 = CARTESIAN_POINT ( 'NONE',  ( 0.0000000000000000000, -10.00000000000000000, -10.00000000000000000 ) ) ;
#273 = DIRECTION ( 'NONE',  ( 0.0000000000000000000, 1.000000000000000000, 0.0000000000000000000 ) ) ;
#274 = DIRECTION ( 'NONE',  ( -0.0000000000000000000, -0.0000000000000000000, -1.000000000000000000 ) ) ;
#275 = ORIENTED_EDGE ( 'NONE', *, *, #97, .F. ) ;
#276 = APPROVAL_PERSON_ORGANIZATION ( #237, #49, #38 ) ;
#277 = ORIENTED_EDGE ( 'NONE', *, *, #30, .T. ) ;
#278 = CC_DESIGN_APPROVAL ( #256, ( #206 ) ) ;
#279 = DATE_TIME_ROLE ( 'classification_date' ) ;
#280 = COORDINATED_UNIVERSAL_TIME_OFFSET ( 5, 0, .BEHIND. ) ;
#281 = VERTEX_POINT ( 'NONE', #316 ) ;
#282 = PERSON_AND_ORGANIZATION ( #7, #127 ) ;
#283 = LINE ( 'NONE', #157, #46 ) ;
#284 = ADVANCED_FACE ( 'NONE', ( #104 ), #287, .F. ) ;
#285 = ORIENTED_EDGE ( 'NONE', *, *, #87, .F. ) ;
#286 = CC_DESIGN_SECURITY_CLASSIFICATION ( #206, ( #116 ) ) ;
#287 = PLANE ( 'NONE',  #226 ) ;
#288 = DIRECTION ( 'NONE',  ( 0.7071067811865475700, 0.7071067811865475700, -0.0000000000000000000 ) ) ;
#289 = CARTESIAN_POINT ( 'NONE',  ( -10.00000000000000000, 10.00000000000000000, 10.00000000000000000 ) ) ;
#290 = CARTESIAN_POINT ( 'NONE',  ( 0.0000000000000000000, -10.00000000000000000, 10.00000000000000000 ) ) ;
#291 = AXIS2_PLACEMENT_3D ( 'NONE', #11, #309, #101 ) ;
#292 = CARTESIAN_POINT ( 'NONE',  ( 10.00000000000000000, 0.0000000000000000000, 10.00000000000000000 ) ) ;
#293 = DIRECTION ( 'NONE',  ( 1.000000000000000000, 0.0000000000000000000, 0.0000000000000000000 ) ) ;
#294 = FACE_OUTER_BOUND ( 'NONE', #28, .T. ) ;
#295 = CARTESIAN_POINT ( 'NONE',  ( -10.00000000000000000, 0.0000000000000000000, -10.00000000000000000 ) ) ;
#296 = DIRECTION ( 'NONE',  ( 0.0000000000000000000, 0.0000000000000000000, 1.000000000000000000 ) ) ;
#297 = DIRECTION ( 'NONE',  ( -0.0000000000000000000, 0.0000000000000000000, 1.000000000000000000 ) ) ;
#298 = ORIENTED_EDGE ( 'NONE', *, *, #138, .T. ) ;
#299 = CARTESIAN_POINT ( 'NONE',  ( -0.0000000000000000000, 0.0000000000000000000, -10.00000000000000000 ) ) ;
#300 = VERTEX_POINT ( 'NONE', #158 ) ;
#301 = PRODUCT ( 'Web Model 47126_47126', 'Web Model 47126_47126', '', ( #220 ) ) ;
#302 = CLOSED_SHELL ( 'NONE', ( #57, #156, #184, #128, #284 ) ) ;
#303 = ORIENTED_EDGE ( 'NONE', *, *, #224, .T. ) ;
#304 = VERTEX_POINT ( 'NONE', #37 ) ;
#305 = ORIENTED_EDGE ( 'NONE', *, *, #50, .T. ) ;
#306 = ADVANCED_FACE ( 'NONE', ( #96 ), #314, .F. ) ;
#307 = VECTOR ( 'NONE', #261, 1000.000000000000000 ) ;
#308 = CARTESIAN_POINT ( 'NONE',  ( 10.00000000000000000, 10.00000000000000000, 10.00000000000000000 ) ) ;
#309 = DIRECTION ( 'NONE',  ( 0.7071067811865475700, 0.7071067811865475700, -0.0000000000000000000 ) ) ;
#310 = ORIENTED_EDGE ( 'NONE', *, *, #87, .T. ) ;
#311 = DIRECTION ( 'NONE',  ( 0.0000000000000000000, 1.000000000000000000, 0.0000000000000000000 ) ) ;
#312 = CLOSED_SHELL ( 'NONE', ( #260, #306, #31, #76, #232 ) ) ;
#313 = DIRECTION ( 'NONE',  ( 1.000000000000000000, 0.0000000000000000000, 0.0000000000000000000 ) ) ;
#314 = PLANE ( 'NONE',  #259 ) ;
#315 = APPROVAL_STATUS ( 'not_yet_approved' ) ;
#316 = CARTESIAN_POINT ( 'NONE',  ( -10.00000000000000000, 10.00000000000000000, -10.00000000000000000 ) ) ;
#317 = CARTESIAN_POINT ( 'NONE',  ( 0.0000000000000000000, 10.00000000000000000, 10.00000000000000000 ) ) ;
#318 = CALENDAR_DATE ( 2017, 6, 6 ) ;
#319 = VERTEX_POINT ( 'NONE', #289 ) ;
#320 = VERTEX_POINT ( 'NONE', #235 ) ;
#321 = DIRECTION ( 'NONE',  ( 0.7071067811865474600, -0.7071067811865474600, 0.0000000000000000000 ) ) ;
ENDSEC;
END-ISO-10303-21;
