ISO-10303-21;
HEADER;
FILE_DESCRIPTION (( 'STEP AP203' ),
    '1' );
FILE_NAME ('Web Model 49757.STEP',
    '2017-01-31T15:24:01',
    ( '' ),
    ( '' ),
    'SwSTEP 2.0',
    'SolidWorks 2016',
    '' );
FILE_SCHEMA (( 'CONFIG_CONTROL_DESIGN' ));
ENDSEC;

DATA;
#1 = DATE_AND_TIME ( #34, #127 ) ;
#2 = VERTEX_POINT ( 'NONE', #36 ) ;
#3 = VECTOR ( 'NONE', #38, 1000.000000000000000 ) ;
#4 = CC_DESIGN_APPROVAL ( #186, ( #103 ) ) ;
#5 = PERSON_AND_ORGANIZATION ( #26, #37 ) ;
#6 = ORIENTED_EDGE ( 'NONE', *, *, #220, .T. ) ;
#7 = LOCAL_TIME ( 10, 24, 1.000000000000000000, #120 ) ;
#8 = CLOSED_SHELL ( 'NONE', ( #169, #11, #116, #228, #29, #185 ) ) ;
#9 = FACE_OUTER_BOUND ( 'NONE', #175, .T. ) ;
#10 = APPROVAL_ROLE ( '' ) ;
#11 = ADVANCED_FACE ( 'NONE', ( #61 ), #40, .F. ) ;
#12 = PERSON_AND_ORGANIZATION_ROLE ( 'design_owner' ) ;
#13 = ORIENTED_EDGE ( 'NONE', *, *, #124, .T. ) ;
#14 = APPROVAL_ROLE ( '' ) ;
#15 = CARTESIAN_POINT ( 'NONE',  ( 3.000000000000000000, 17.50000000000000000, -17.50000000000000000 ) ) ;
#16 = CARTESIAN_POINT ( 'NONE',  ( 0.0000000000000000000, -17.50000000000000000, 17.50000000000000000 ) ) ;
#17 = DIRECTION ( 'NONE',  ( 0.0000000000000000000, 0.0000000000000000000, -1.000000000000000000 ) ) ;
#18 = ORIENTED_EDGE ( 'NONE', *, *, #132, .T. ) ;
#19 = DIRECTION ( 'NONE',  ( -0.0000000000000000000, -0.0000000000000000000, 1.000000000000000000 ) ) ;
#20 = CARTESIAN_POINT ( 'NONE',  ( 0.0000000000000000000, 17.50000000000000000, -17.50000000000000000 ) ) ;
#21 = DIRECTION ( 'NONE',  ( -0.0000000000000000000, 1.000000000000000000, -0.0000000000000000000 ) ) ;
#22 = AXIS2_PLACEMENT_3D ( 'NONE', #203, #70, #56 ) ;
#23 = CC_DESIGN_DATE_AND_TIME_ASSIGNMENT ( #227, #100, ( #94 ) ) ;
#24 = LINE ( 'NONE', #210, #125 ) ;
#25 = COORDINATED_UNIVERSAL_TIME_OFFSET ( 5, 0, .BEHIND. ) ;
#26 = PERSON ( 'UNSPECIFIED', 'UNSPECIFIED', 'UNSPECIFIED', ('UNSPECIFIED'), ('UNSPECIFIED'), ('UNSPECIFIED') ) ;
#27 = VECTOR ( 'NONE', #19, 1000.000000000000000 ) ;
#28 = APPLICATION_PROTOCOL_DEFINITION ( 'international standard', 'config_control_design', 1994, #134 ) ;
#29 = ADVANCED_FACE ( 'NONE', ( #204 ), #174, .T. ) ;
#30 = VECTOR ( 'NONE', #84, 1000.000000000000000 ) ;
#31 = FACE_OUTER_BOUND ( 'NONE', #189, .T. ) ;
#32 = CC_DESIGN_PERSON_AND_ORGANIZATION_ASSIGNMENT ( #48, #188, ( #103 ) ) ;
#33 = DATE_TIME_ROLE ( 'creation_date' ) ;
#34 = CALENDAR_DATE ( 2017, 31, 1 ) ;
#35 = EDGE_CURVE ( 'NONE', #190, #74, #24, .T. ) ;
#36 = CARTESIAN_POINT ( 'NONE',  ( 3.000000000000000000, -17.50000000000000000, -17.50000000000000000 ) ) ;
#37 = ORGANIZATION ( 'UNSPECIFIED', 'UNSPECIFIED', '' ) ;
#38 = DIRECTION ( 'NONE',  ( 0.0000000000000000000, -1.000000000000000000, 0.0000000000000000000 ) ) ;
#39 = CC_DESIGN_APPROVAL ( #117, ( #94 ) ) ;
#40 = PLANE ( 'NONE',  #157 ) ;
#41 = LINE ( 'NONE', #211, #164 ) ;
#42 = PLANE ( 'NONE',  #217 ) ;
#43 = EDGE_CURVE ( 'NONE', #107, #2, #41, .T. ) ;
#44 = DIRECTION ( 'NONE',  ( -1.000000000000000000, -0.0000000000000000000, -0.0000000000000000000 ) ) ;
#45 = CALENDAR_DATE ( 2017, 31, 1 ) ;
#46 = APPROVAL_DATE_TIME ( #224, #153 ) ;
#47 = LINE ( 'NONE', #91, #131 ) ;
#48 = PERSON_AND_ORGANIZATION ( #26, #37 ) ;
#49 = APPROVAL_PERSON_ORGANIZATION ( #111, #186, #10 ) ;
#50 = VERTEX_POINT ( 'NONE', #89 ) ;
#51 = CALENDAR_DATE ( 2017, 31, 1 ) ;
#52 = ORIENTED_EDGE ( 'NONE', *, *, #92, .T. ) ;
#53 = APPLICATION_CONTEXT ( 'configuration controlled 3d designs of mechanical parts and assemblies' ) ;
#54 = VECTOR ( 'NONE', #129, 1000.000000000000000 ) ;
#55 = PRODUCT_RELATED_PRODUCT_CATEGORY ( 'detail', '', ( #223 ) ) ;
#56 = DIRECTION ( 'NONE',  ( 0.0000000000000000000, -0.0000000000000000000, -1.000000000000000000 ) ) ;
#57 =( NAMED_UNIT ( * ) SI_UNIT ( $, .STERADIAN. ) SOLID_ANGLE_UNIT ( ) );
#58 = CALENDAR_DATE ( 2017, 31, 1 ) ;
#59 = DIRECTION ( 'NONE',  ( -0.0000000000000000000, 1.000000000000000000, 0.0000000000000000000 ) ) ;
#60 = PERSON_AND_ORGANIZATION ( #26, #37 ) ;
#61 = FACE_OUTER_BOUND ( 'NONE', #99, .T. ) ;
#62 = CARTESIAN_POINT ( 'NONE',  ( 3.000000000000000000, -17.50000000000000000, 17.50000000000000000 ) ) ;
#63 = CC_DESIGN_APPROVAL ( #153, ( #77 ) ) ;
#64 = CARTESIAN_POINT ( 'NONE',  ( 0.0000000000000000000, -17.50000000000000000, 17.50000000000000000 ) ) ;
#65 = CARTESIAN_POINT ( 'NONE',  ( 3.000000000000000000, 17.50000000000000000, 17.50000000000000000 ) ) ;
#66 = PERSON_AND_ORGANIZATION ( #26, #37 ) ;
#67 = VERTEX_POINT ( 'NONE', #16 ) ;
#68 = LINE ( 'NONE', #78, #112 ) ;
#69 = VERTEX_POINT ( 'NONE', #156 ) ;
#70 = DIRECTION ( 'NONE',  ( 0.0000000000000000000, -1.000000000000000000, 0.0000000000000000000 ) ) ;
#71 = EDGE_CURVE ( 'NONE', #74, #107, #118, .T. ) ;
#72 = PERSON_AND_ORGANIZATION_ROLE ( 'creator' ) ;
#73 = PERSON_AND_ORGANIZATION ( #26, #37 ) ;
#74 = VERTEX_POINT ( 'NONE', #232 ) ;
#75 = LINE ( 'NONE', #237, #172 ) ;
#76 = LINE ( 'NONE', #159, #54 ) ;
#77 = PRODUCT_DEFINITION ( 'UNKNOWN', '', #103, #122 ) ;
#78 = CARTESIAN_POINT ( 'NONE',  ( 3.000000000000000000, -17.50000000000000000, -17.50000000000000000 ) ) ;
#79 = ORIENTED_EDGE ( 'NONE', *, *, #132, .F. ) ;
#80 = VECTOR ( 'NONE', #146, 1000.000000000000000 ) ;
#81 = ORIENTED_EDGE ( 'NONE', *, *, #71, .F. ) ;
#82 = ORIENTED_EDGE ( 'NONE', *, *, #216, .F. ) ;
#83 = DIRECTION ( 'NONE',  ( 0.0000000000000000000, 0.0000000000000000000, 1.000000000000000000 ) ) ;
#84 = DIRECTION ( 'NONE',  ( -0.0000000000000000000, 1.000000000000000000, -0.0000000000000000000 ) ) ;
#85 = APPROVAL_PERSON_ORGANIZATION ( #60, #153, #152 ) ;
#86 = ORIENTED_EDGE ( 'NONE', *, *, #43, .F. ) ;
#87 = CARTESIAN_POINT ( 'NONE',  ( 3.000000000000000000, 17.50000000000000000, 17.50000000000000000 ) ) ;
#88 = VECTOR ( 'NONE', #235, 1000.000000000000000 ) ;
#89 = CARTESIAN_POINT ( 'NONE',  ( 0.0000000000000000000, -17.50000000000000000, -17.50000000000000000 ) ) ;
#90 = EDGE_CURVE ( 'NONE', #2, #190, #109, .T. ) ;
#91 = CARTESIAN_POINT ( 'NONE',  ( 0.0000000000000000000, 17.50000000000000000, -17.50000000000000000 ) ) ;
#92 = EDGE_CURVE ( 'NONE', #190, #212, #222, .T. ) ;
#93 = LINE ( 'NONE', #209, #27 ) ;
#94 = SECURITY_CLASSIFICATION ( '', '', #201 ) ;
#95 = PRODUCT_DEFINITION_SHAPE ( 'NONE', 'NONE',  #77 ) ;
#96 = ORIENTED_EDGE ( 'NONE', *, *, #173, .T. ) ;
#97 = CARTESIAN_POINT ( 'NONE',  ( 0.0000000000000000000, 0.0000000000000000000, 0.0000000000000000000 ) ) ;
#98 = MECHANICAL_CONTEXT ( 'NONE', #134, 'mechanical' ) ;
#99 = EDGE_LOOP ( 'NONE', ( #102, #168, #86, #150 ) ) ;
#100 = DATE_TIME_ROLE ( 'classification_date' ) ;
#101 = DIRECTION ( 'NONE',  ( 0.0000000000000000000, 0.0000000000000000000, -1.000000000000000000 ) ) ;
#102 = ORIENTED_EDGE ( 'NONE', *, *, #166, .T. ) ;
#103 = PRODUCT_DEFINITION_FORMATION_WITH_SPECIFIED_SOURCE ( 'ANY', '', #223, .NOT_KNOWN. ) ;
#104 = DIRECTION ( 'NONE',  ( 1.000000000000000000, 0.0000000000000000000, 0.0000000000000000000 ) ) ;
#105 = DIRECTION ( 'NONE',  ( -0.0000000000000000000, 0.0000000000000000000, 1.000000000000000000 ) ) ;
#106 = APPROVAL_PERSON_ORGANIZATION ( #187, #117, #14 ) ;
#107 = VERTEX_POINT ( 'NONE', #215 ) ;
#108 = APPROVAL_DATE_TIME ( #197, #117 ) ;
#109 = LINE ( 'NONE', #15, #30 ) ;
#110 = ADVANCED_BREP_SHAPE_REPRESENTATION ( 'Web Model 49757', ( #226, #162 ), #179 ) ;
#111 = PERSON_AND_ORGANIZATION ( #26, #37 ) ;
#112 = VECTOR ( 'NONE', #44, 1000.000000000000000 ) ;
#113 = AXIS2_PLACEMENT_3D ( 'NONE', #193, #104, #17 ) ;
#114 = DIRECTION ( 'NONE',  ( 1.000000000000000000, 0.0000000000000000000, 0.0000000000000000000 ) ) ;
#115 = APPLICATION_PROTOCOL_DEFINITION ( 'international standard', 'config_control_design', 1994, #53 ) ;
#116 = ADVANCED_FACE ( 'NONE', ( #9 ), #121, .F. ) ;
#117 = APPROVAL ( #119, 'UNSPECIFIED' ) ;
#118 = LINE ( 'NONE', #87, #3 ) ;
#119 = APPROVAL_STATUS ( 'not_yet_approved' ) ;
#120 = COORDINATED_UNIVERSAL_TIME_OFFSET ( 5, 0, .BEHIND. ) ;
#121 = PLANE ( 'NONE',  #183 ) ;
#122 = DESIGN_CONTEXT ( 'detailed design', #53, 'design' ) ;
#123 = CARTESIAN_POINT ( 'NONE',  ( 3.000000000000000000, -17.50000000000000000, 17.50000000000000000 ) ) ;
#124 = EDGE_CURVE ( 'NONE', #2, #50, #68, .T. ) ;
#125 = VECTOR ( 'NONE', #207, 1000.000000000000000 ) ;
#126 = DIRECTION ( 'NONE',  ( -1.000000000000000000, -0.0000000000000000000, -0.0000000000000000000 ) ) ;
#127 = LOCAL_TIME ( 10, 24, 1.000000000000000000, #25 ) ;
#128 = ORIENTED_EDGE ( 'NONE', *, *, #140, .T. ) ;
#129 = DIRECTION ( 'NONE',  ( 0.0000000000000000000, -1.000000000000000000, 0.0000000000000000000 ) ) ;
#130 = ORIENTED_EDGE ( 'NONE', *, *, #90, .F. ) ;
#131 = VECTOR ( 'NONE', #21, 1000.000000000000000 ) ;
#132 = EDGE_CURVE ( 'NONE', #69, #67, #76, .T. ) ;
#133 = ORIENTED_EDGE ( 'NONE', *, *, #140, .F. ) ;
#134 = APPLICATION_CONTEXT ( 'configuration controlled 3d designs of mechanical parts and assemblies' ) ;
#135 = EDGE_LOOP ( 'NONE', ( #79, #133, #171, #225 ) ) ;
#136 = AXIS2_PLACEMENT_3D ( 'NONE', #123, #206, #101 ) ;
#137 = LINE ( 'NONE', #65, #165 ) ;
#138 = APPROVAL_STATUS ( 'not_yet_approved' ) ;
#139 = CALENDAR_DATE ( 2017, 31, 1 ) ;
#140 = EDGE_CURVE ( 'NONE', #212, #69, #93, .T. ) ;
#141 = LOCAL_TIME ( 10, 24, 1.000000000000000000, #198 ) ;
#142 = CC_DESIGN_SECURITY_CLASSIFICATION ( #94, ( #103 ) ) ;
#143 = CARTESIAN_POINT ( 'NONE',  ( 3.000000000000000000, 17.50000000000000000, -17.50000000000000000 ) ) ;
#144 = DIRECTION ( 'NONE',  ( -1.000000000000000000, 0.0000000000000000000, -0.0000000000000000000 ) ) ;
#145 = EDGE_LOOP ( 'NONE', ( #192, #221, #161, #151 ) ) ;
#146 = DIRECTION ( 'NONE',  ( -1.000000000000000000, -0.0000000000000000000, -0.0000000000000000000 ) ) ;
#147 = CARTESIAN_POINT ( 'NONE',  ( 3.000000000000000000, 17.50000000000000000, 17.50000000000000000 ) ) ;
#148 = UNCERTAINTY_MEASURE_WITH_UNIT (LENGTH_MEASURE( 1.000000000000000100E-005 ), #229, 'distance_accuracy_value', 'NONE');
#149 = PERSON_AND_ORGANIZATION ( #26, #37 ) ;
#150 = ORIENTED_EDGE ( 'NONE', *, *, #216, .T. ) ;
#151 = ORIENTED_EDGE ( 'NONE', *, *, #35, .T. ) ;
#152 = APPROVAL_ROLE ( '' ) ;
#153 = APPROVAL ( #138, 'UNSPECIFIED' ) ;
#154 = LOCAL_TIME ( 10, 24, 1.000000000000000000, #202 ) ;
#155 = PLANE ( 'NONE',  #22 ) ;
#156 = CARTESIAN_POINT ( 'NONE',  ( 0.0000000000000000000, 17.50000000000000000, 17.50000000000000000 ) ) ;
#157 = AXIS2_PLACEMENT_3D ( 'NONE', #62, #59, #234 ) ;
#158 = DIRECTION ( 'NONE',  ( -1.000000000000000000, -0.0000000000000000000, -0.0000000000000000000 ) ) ;
#159 = CARTESIAN_POINT ( 'NONE',  ( 0.0000000000000000000, 17.50000000000000000, 17.50000000000000000 ) ) ;
#160 = DIRECTION ( 'NONE',  ( 0.0000000000000000000, 0.0000000000000000000, -1.000000000000000000 ) ) ;
#161 = ORIENTED_EDGE ( 'NONE', *, *, #90, .T. ) ;
#162 = AXIS2_PLACEMENT_3D ( 'NONE', #97, #83, #114 ) ;
#163 = CC_DESIGN_PERSON_AND_ORGANIZATION_ASSIGNMENT ( #149, #170, ( #77 ) ) ;
#164 = VECTOR ( 'NONE', #233, 1000.000000000000000 ) ;
#165 = VECTOR ( 'NONE', #158, 1000.000000000000000 ) ;
#166 = EDGE_CURVE ( 'NONE', #67, #50, #213, .T. ) ;
#167 = APPROVAL_DATE_TIME ( #1, #186 ) ;
#168 = ORIENTED_EDGE ( 'NONE', *, *, #124, .F. ) ;
#169 = ADVANCED_FACE ( 'NONE', ( #31 ), #42, .F. ) ;
#170 = PERSON_AND_ORGANIZATION_ROLE ( 'creator' ) ;
#171 = ORIENTED_EDGE ( 'NONE', *, *, #220, .F. ) ;
#172 = VECTOR ( 'NONE', #126, 1000.000000000000000 ) ;
#173 = EDGE_CURVE ( 'NONE', #74, #69, #137, .T. ) ;
#174 = PLANE ( 'NONE',  #136 ) ;
#175 = EDGE_LOOP ( 'NONE', ( #6, #199, #130, #13 ) ) ;
#176 = CC_DESIGN_PERSON_AND_ORGANIZATION_ASSIGNMENT ( #5, #72, ( #103 ) ) ;
#177 = CARTESIAN_POINT ( 'NONE',  ( 3.000000000000000000, 17.50000000000000000, -17.50000000000000000 ) ) ;
#178 = DIRECTION ( 'NONE',  ( 1.000000000000000000, 0.0000000000000000000, 0.0000000000000000000 ) ) ;
#179 =( GEOMETRIC_REPRESENTATION_CONTEXT ( 3 ) GLOBAL_UNCERTAINTY_ASSIGNED_CONTEXT ( ( #148 ) ) GLOBAL_UNIT_ASSIGNED_CONTEXT ( ( #229, #231, #57 ) ) REPRESENTATION_CONTEXT ( 'NONE', 'WORKASPACE' ) );
#180 = DATE_AND_TIME ( #139, #7 ) ;
#181 = ORIENTED_EDGE ( 'NONE', *, *, #173, .F. ) ;
#182 = FACE_OUTER_BOUND ( 'NONE', #135, .T. ) ;
#183 = AXIS2_PLACEMENT_3D ( 'NONE', #218, #105, #178 ) ;
#184 = APPROVAL_STATUS ( 'not_yet_approved' ) ;
#185 = ADVANCED_FACE ( 'NONE', ( #182 ), #191, .F. ) ;
#186 = APPROVAL ( #184, 'UNSPECIFIED' ) ;
#187 = PERSON_AND_ORGANIZATION ( #26, #37 ) ;
#188 = PERSON_AND_ORGANIZATION_ROLE ( 'design_supplier' ) ;
#189 = EDGE_LOOP ( 'NONE', ( #18, #82, #81, #96 ) ) ;
#190 = VERTEX_POINT ( 'NONE', #143 ) ;
#191 = PLANE ( 'NONE',  #113 ) ;
#192 = ORIENTED_EDGE ( 'NONE', *, *, #71, .T. ) ;
#193 = CARTESIAN_POINT ( 'NONE',  ( 0.0000000000000000000, -17.50000000000000000, 17.50000000000000000 ) ) ;
#194 = SHAPE_DEFINITION_REPRESENTATION ( #95, #110 ) ;
#195 = LOCAL_TIME ( 10, 24, 1.000000000000000000, #208 ) ;
#196 = FACE_OUTER_BOUND ( 'NONE', #236, .T. ) ;
#197 = DATE_AND_TIME ( #45, #154 ) ;
#198 = COORDINATED_UNIVERSAL_TIME_OFFSET ( 5, 0, .BEHIND. ) ;
#199 = ORIENTED_EDGE ( 'NONE', *, *, #92, .F. ) ;
#200 = CC_DESIGN_PERSON_AND_ORGANIZATION_ASSIGNMENT ( #66, #12, ( #223 ) ) ;
#201 = SECURITY_CLASSIFICATION_LEVEL ( 'unclassified' ) ;
#202 = COORDINATED_UNIVERSAL_TIME_OFFSET ( 5, 0, .BEHIND. ) ;
#203 = CARTESIAN_POINT ( 'NONE',  ( 3.000000000000000000, 17.50000000000000000, 17.50000000000000000 ) ) ;
#204 = FACE_OUTER_BOUND ( 'NONE', #145, .T. ) ;
#205 = PERSON_AND_ORGANIZATION_ROLE ( 'classification_officer' ) ;
#206 = DIRECTION ( 'NONE',  ( 1.000000000000000000, 0.0000000000000000000, 0.0000000000000000000 ) ) ;
#207 = DIRECTION ( 'NONE',  ( -0.0000000000000000000, -0.0000000000000000000, 1.000000000000000000 ) ) ;
#208 = COORDINATED_UNIVERSAL_TIME_OFFSET ( 5, 0, .BEHIND. ) ;
#209 = CARTESIAN_POINT ( 'NONE',  ( 0.0000000000000000000, 17.50000000000000000, 17.50000000000000000 ) ) ;
#210 = CARTESIAN_POINT ( 'NONE',  ( 3.000000000000000000, 17.50000000000000000, 17.50000000000000000 ) ) ;
#211 = CARTESIAN_POINT ( 'NONE',  ( 3.000000000000000000, -17.50000000000000000, 17.50000000000000000 ) ) ;
#212 = VERTEX_POINT ( 'NONE', #20 ) ;
#213 = LINE ( 'NONE', #64, #88 ) ;
#214 = CC_DESIGN_DATE_AND_TIME_ASSIGNMENT ( #180, #33, ( #77 ) ) ;
#215 = CARTESIAN_POINT ( 'NONE',  ( 3.000000000000000000, -17.50000000000000000, 17.50000000000000000 ) ) ;
#216 = EDGE_CURVE ( 'NONE', #107, #67, #75, .T. ) ;
#217 = AXIS2_PLACEMENT_3D ( 'NONE', #147, #160, #144 ) ;
#218 = CARTESIAN_POINT ( 'NONE',  ( 3.000000000000000000, 17.50000000000000000, -17.50000000000000000 ) ) ;
#219 = ORIENTED_EDGE ( 'NONE', *, *, #35, .F. ) ;
#220 = EDGE_CURVE ( 'NONE', #50, #212, #47, .T. ) ;
#221 = ORIENTED_EDGE ( 'NONE', *, *, #43, .T. ) ;
#222 = LINE ( 'NONE', #177, #80 ) ;
#223 = PRODUCT ( 'Web Model 49757', 'Web Model 49757', '', ( #98 ) ) ;
#224 = DATE_AND_TIME ( #58, #195 ) ;
#225 = ORIENTED_EDGE ( 'NONE', *, *, #166, .F. ) ;
#226 = MANIFOLD_SOLID_BREP ( 'Extrude1', #8 ) ;
#227 = DATE_AND_TIME ( #51, #141 ) ;
#228 = ADVANCED_FACE ( 'NONE', ( #196 ), #155, .F. ) ;
#229 =( LENGTH_UNIT ( ) NAMED_UNIT ( * ) SI_UNIT ( .MILLI., .METRE. ) );
#230 = CC_DESIGN_PERSON_AND_ORGANIZATION_ASSIGNMENT ( #73, #205, ( #94 ) ) ;
#231 =( NAMED_UNIT ( * ) PLANE_ANGLE_UNIT ( ) SI_UNIT ( $, .RADIAN. ) );
#232 = CARTESIAN_POINT ( 'NONE',  ( 3.000000000000000000, 17.50000000000000000, 17.50000000000000000 ) ) ;
#233 = DIRECTION ( 'NONE',  ( 0.0000000000000000000, 0.0000000000000000000, -1.000000000000000000 ) ) ;
#234 = DIRECTION ( 'NONE',  ( 0.0000000000000000000, -0.0000000000000000000, 1.000000000000000000 ) ) ;
#235 = DIRECTION ( 'NONE',  ( 0.0000000000000000000, 0.0000000000000000000, -1.000000000000000000 ) ) ;
#236 = EDGE_LOOP ( 'NONE', ( #128, #181, #219, #52 ) ) ;
#237 = CARTESIAN_POINT ( 'NONE',  ( 3.000000000000000000, -17.50000000000000000, 17.50000000000000000 ) ) ;
ENDSEC;
END-ISO-10303-21;
