ISO-10303-21;
HEADER;
FILE_DESCRIPTION (( 'STEP AP203' ),
    '1' );
FILE_NAME ('20133-E0W.STEP',
    '2019-07-16T11:11:39',
    ( '' ),
    ( '' ),
    'SwSTEP 2.0',
    'SolidWorks 2018',
    '' );
FILE_SCHEMA (( 'CONFIG_CONTROL_DESIGN' ));
ENDSEC;

DATA;
#1 = DATE_AND_TIME ( #69, #138 ) ;
#2 = EDGE_CURVE ( 'NONE', #220, #226, #199, .T. ) ;
#3 = EDGE_LOOP ( 'NONE', ( #43, #54, #113, #227 ) ) ;
#4 = AXIS2_PLACEMENT_3D ( 'NONE', #166, #151, #290 ) ;
#5 = CARTESIAN_POINT ( 'NONE',  ( 0.0000000000000000000, 9.968295720114149768E-17, -0.2289999999999999813 ) ) ;
#6 = CARTESIAN_POINT ( 'NONE',  ( 0.0000000000000000000, -1.250000000000000000, -0.2290000000000005642 ) ) ;
#7 = APPROVAL_DATE_TIME ( #1, #112 ) ;
#8 = ORIENTED_EDGE ( 'NONE', *, *, #115, .F. ) ;
#9 = MANIFOLD_SOLID_BREP ( '20133-001-1-solid1', #280 ) ;
#10 = DIRECTION ( 'NONE',  ( 0.0000000000000000000, 1.000000000000000000, 3.053426808141229020E-16 ) ) ;
#11 = DIRECTION ( 'NONE',  ( -0.0000000000000000000, 3.061515884555941666E-16, -1.000000000000000000 ) ) ;
#12 = CALENDAR_DATE ( 2019, 16, 7 ) ;
#13 = FACE_OUTER_BOUND ( 'NONE', #61, .T. ) ;
#14 = AXIS2_PLACEMENT_3D ( 'NONE', #81, #32, #36 ) ;
#15 = EDGE_CURVE ( 'NONE', #216, #107, #73, .T. ) ;
#16 = DIRECTION ( 'NONE',  ( 0.0000000000000000000, 0.0000000000000000000, 1.000000000000000000 ) ) ;
#17 = APPROVAL_PERSON_ORGANIZATION ( #247, #112, #263 ) ;
#18 = CYLINDRICAL_SURFACE ( 'NONE', #206, 1.269999999999999574 ) ;
#19 = VERTEX_POINT ( 'NONE', #300 ) ;
#20 = ADVANCED_FACE ( 'NONE', ( #246 ), #180, .T. ) ;
#21 = PRODUCT_DEFINITION_SHAPE ( 'NONE', 'NONE',  #35 ) ;
#22 = CC_DESIGN_PERSON_AND_ORGANIZATION_ASSIGNMENT ( #275, #266, ( #105 ) ) ;
#23 = ORIENTED_EDGE ( 'NONE', *, *, #201, .T. ) ;
#24 = EDGE_CURVE ( 'NONE', #107, #226, #215, .T. ) ;
#25 = ORIENTED_EDGE ( 'NONE', *, *, #277, .T. ) ;
#26 = DIRECTION ( 'NONE',  ( -0.0000000000000000000, 3.061515884555943146E-16, -1.000000000000000000 ) ) ;
#27 = DIRECTION ( 'NONE',  ( 0.0000000000000000000, -1.000000000000000000, -3.073328992872296860E-16 ) ) ;
#28 = APPROVAL_PERSON_ORGANIZATION ( #167, #67, #87 ) ;
#29 = EDGE_LOOP ( 'NONE', ( #111, #25, #279, #160 ) ) ;
#30 = DIRECTION ( 'NONE',  ( -0.0000000000000000000, 3.061515884555941666E-16, -1.000000000000000000 ) ) ;
#31 = CC_DESIGN_APPROVAL ( #67, ( #77 ) ) ;
#32 = DIRECTION ( 'NONE',  ( 1.000000000000000000, 0.0000000000000000000, -0.0000000000000000000 ) ) ;
#33 = VECTOR ( 'NONE', #144, 100.0000000000000000 ) ;
#34 = DIRECTION ( 'NONE',  ( 0.0000000000000000000, 1.000000000000000000, 3.061515884555943146E-16 ) ) ;
#35 = PRODUCT_DEFINITION ( 'UNKNOWN', '', #77, #64 ) ;
#36 = DIRECTION ( 'NONE',  ( 0.0000000000000000000, 1.000000000000000000, 3.198629642243639471E-16 ) ) ;
#37 = CARTESIAN_POINT ( 'NONE',  ( 0.0000000000000000000, 1.269999999999999796, -0.2289999999999995928 ) ) ;
#38 = EDGE_CURVE ( 'NONE', #216, #220, #41, .T. ) ;
#39 = APPROVAL_STATUS ( 'not_yet_approved' ) ;
#40 = PERSON_AND_ORGANIZATION ( #270, #250 ) ;
#41 = CIRCLE ( 'NONE', #68, 1.251647050396445637 ) ;
#42 = PERSON_AND_ORGANIZATION_ROLE ( 'design_owner' ) ;
#43 = ORIENTED_EDGE ( 'NONE', *, *, #24, .T. ) ;
#44 = CC_DESIGN_PERSON_AND_ORGANIZATION_ASSIGNMENT ( #53, #42, ( #195 ) ) ;
#45 = VECTOR ( 'NONE', #117, 100.0000000000000000 ) ;
#46 = CC_DESIGN_APPROVAL ( #135, ( #35 ) ) ;
#47 = CARTESIAN_POINT ( 'NONE',  ( 0.0000000000000000000, 9.968295720114154698E-17, -0.2290000000000001756 ) ) ;
#48 = ORIENTED_EDGE ( 'NONE', *, *, #15, .F. ) ;
#49 = CC_DESIGN_DATE_AND_TIME_ASSIGNMENT ( #163, #130, ( #105 ) ) ;
#50 = DIRECTION ( 'NONE',  ( 0.0000000000000000000, -3.061515884555941666E-16, 1.000000000000000000 ) ) ;
#51 = EDGE_CURVE ( 'NONE', #299, #208, #175, .T. ) ;
#52 = CARTESIAN_POINT ( 'NONE',  ( 0.0000000000000000000, 3.579524372222803188E-16, -3.025000000000011013 ) ) ;
#53 = PERSON_AND_ORGANIZATION ( #270, #250 ) ;
#54 = ORIENTED_EDGE ( 'NONE', *, *, #271, .T. ) ;
#55 = CARTESIAN_POINT ( 'NONE',  ( 1.530808498934191817E-16, 1.250000000000000444, -0.2289999999999997871 ) ) ;
#56 = CARTESIAN_POINT ( 'NONE',  ( 0.0000000000000000000, 9.968295720114155931E-17, -0.2290000000000001756 ) ) ;
#57 = DIRECTION ( 'NONE',  ( 0.0000000000000000000, -3.061515884555948076E-16, 1.000000000000000000 ) ) ;
#58 = LOCAL_TIME ( 7, 11, 39.00000000000000000, #72 ) ;
#59 = AXIS2_PLACEMENT_3D ( 'NONE', #104, #288, #236 ) ;
#60 = DATE_AND_TIME ( #237, #74 ) ;
#61 = EDGE_LOOP ( 'NONE', ( #222, #118, #23, #238 ) ) ;
#62 = SECURITY_CLASSIFICATION_LEVEL ( 'unclassified' ) ;
#63 = PERSON_AND_ORGANIZATION_ROLE ( 'creator' ) ;
#64 = DESIGN_CONTEXT ( 'detailed design', #243, 'design' ) ;
#65 = APPROVAL_STATUS ( 'not_yet_approved' ) ;
#66 = FACE_OUTER_BOUND ( 'NONE', #132, .T. ) ;
#67 = APPROVAL ( #109, 'UNSPECIFIED' ) ;
#68 = AXIS2_PLACEMENT_3D ( 'NONE', #181, #50, #204 ) ;
#69 = CALENDAR_DATE ( 2019, 16, 7 ) ;
#70 = EDGE_CURVE ( 'NONE', #19, #220, #188, .T. ) ;
#71 = EDGE_LOOP ( 'NONE', ( #100, #80, #261 ) ) ;
#72 = COORDINATED_UNIVERSAL_TIME_OFFSET ( 5, 0, .BEHIND. ) ;
#73 = LINE ( 'NONE', #78, #45 ) ;
#74 = LOCAL_TIME ( 7, 11, 39.00000000000000000, #154 ) ;
#75 = DIRECTION ( 'NONE',  ( -0.0000000000000000000, 3.061515884555941666E-16, -1.000000000000000000 ) ) ;
#76 = CONICAL_SURFACE ( 'NONE', #218, 1.250000000000000222, 0.7853981633974439491 ) ;
#77 = PRODUCT_DEFINITION_FORMATION_WITH_SPECIFIED_SOURCE ( 'ANY', '', #195, .NOT_KNOWN. ) ;
#78 = CARTESIAN_POINT ( 'NONE',  ( 0.0000000000000000000, 1.269999999999999574, -0.04906675641795812948 ) ) ;
#79 = DIRECTION ( 'NONE',  ( 8.659560562354895880E-17, 0.7071067811865442421, 0.7071067811865507924 ) ) ;
#80 = ORIENTED_EDGE ( 'NONE', *, *, #116, .T. ) ;
#81 = CARTESIAN_POINT ( 'NONE',  ( 0.0000000000000000000, 3.579524372222803188E-16, -3.025000000000011013 ) ) ;
#82 = CC_DESIGN_PERSON_AND_ORGANIZATION_ASSIGNMENT ( #260, #191, ( #77 ) ) ;
#83 = DIRECTION ( 'NONE',  ( 0.0000000000000000000, 1.000000000000000000, 3.073328992872296860E-16 ) ) ;
#84 = EDGE_CURVE ( 'NONE', #208, #299, #136, .T. ) ;
#85 = DIRECTION ( 'NONE',  ( -0.0000000000000000000, 3.061515884555943146E-16, -1.000000000000000000 ) ) ;
#86 = LINE ( 'NONE', #55, #129 ) ;
#87 = APPROVAL_ROLE ( '' ) ;
#88 = EDGE_CURVE ( 'NONE', #226, #107, #155, .T. ) ;
#89 = ORIENTED_EDGE ( 'NONE', *, *, #289, .T. ) ;
#90 = LINE ( 'NONE', #283, #33 ) ;
#91 = CC_DESIGN_PERSON_AND_ORGANIZATION_ASSIGNMENT ( #122, #239, ( #77 ) ) ;
#92 = COORDINATED_UNIVERSAL_TIME_OFFSET ( 5, 0, .BEHIND. ) ;
#93 = SPHERICAL_SURFACE ( 'NONE', #200, 3.254000000000012438 ) ;
#94 = ORIENTED_EDGE ( 'NONE', *, *, #116, .F. ) ;
#95 = AXIS2_PLACEMENT_3D ( 'NONE', #56, #187, #34 ) ;
#96 = CALENDAR_DATE ( 2019, 16, 7 ) ;
#97 = AXIS2_PLACEMENT_3D ( 'NONE', #185, #258, #231 ) ;
#98 = DIRECTION ( 'NONE',  ( -0.0000000000000000000, 3.061515884555943146E-16, -1.000000000000000000 ) ) ;
#99 = CIRCLE ( 'NONE', #4, 1.269999999999999574 ) ;
#100 = ORIENTED_EDGE ( 'NONE', *, *, #70, .F. ) ;
#101 = CARTESIAN_POINT ( 'NONE',  ( 0.0000000000000000000, 9.968295720114149768E-17, -0.2289999999999999813 ) ) ;
#102 = LOCAL_TIME ( 7, 11, 39.00000000000000000, #92 ) ;
#103 = VERTEX_POINT ( 'NONE', #285 ) ;
#104 = CARTESIAN_POINT ( 'NONE',  ( 0.0000000000000000000, 4.459610886253221403E-17, -0.04906675641795851806 ) ) ;
#105 = SECURITY_CLASSIFICATION ( '', '', #62 ) ;
#106 = ORIENTED_EDGE ( 'NONE', *, *, #2, .F. ) ;
#107 = VERTEX_POINT ( 'NONE', #178 ) ;
#108 = ADVANCED_FACE ( 'NONE', ( #139 ), #148, .T. ) ;
#109 = APPROVAL_STATUS ( 'not_yet_approved' ) ;
#110 = LOCAL_TIME ( 7, 11, 39.00000000000000000, #133 ) ;
#111 = ORIENTED_EDGE ( 'NONE', *, *, #51, .F. ) ;
#112 = APPROVAL ( #39, 'UNSPECIFIED' ) ;
#113 = ORIENTED_EDGE ( 'NONE', *, *, #297, .T. ) ;
#114 = ORIENTED_EDGE ( 'NONE', *, *, #84, .F. ) ;
#115 = EDGE_CURVE ( 'NONE', #176, #103, #207, .T. ) ;
#116 = EDGE_CURVE ( 'NONE', #19, #216, #251, .T. ) ;
#117 = DIRECTION ( 'NONE',  ( 0.0000000000000000000, 0.5521372677014051433, -0.8337532234511761953 ) ) ;
#118 = ORIENTED_EDGE ( 'NONE', *, *, #88, .T. ) ;
#119 = ORIENTED_EDGE ( 'NONE', *, *, #38, .F. ) ;
#120 = DIRECTION ( 'NONE',  ( 0.0000000000000000000, 1.000000000000000000, 3.073328992872296860E-16 ) ) ;
#121 = DIRECTION ( 'NONE',  ( 0.0000000000000000000, -1.000000000000000000, -3.073328992872296860E-16 ) ) ;
#122 = PERSON_AND_ORGANIZATION ( #270, #250 ) ;
#123 = DIRECTION ( 'NONE',  ( 0.0000000000000000000, -0.7071067811865446862, 0.7071067811865503483 ) ) ;
#124 = FACE_OUTER_BOUND ( 'NONE', #184, .T. ) ;
#125 = ORIENTED_EDGE ( 'NONE', *, *, #88, .F. ) ;
#126 = CARTESIAN_POINT ( 'NONE',  ( 0.0000000000000000000, 4.459610886253221403E-17, -0.04906675641795878173 ) ) ;
#127 = DIRECTION ( 'NONE',  ( 0.0000000000000000000, -1.000000000000000000, -3.122502256758252277E-16 ) ) ;
#128 = PLANE ( 'NONE',  #95 ) ;
#129 = VECTOR ( 'NONE', #79, 100.0000000000000000 ) ;
#130 = DATE_TIME_ROLE ( 'classification_date' ) ;
#131 = AXIS2_PLACEMENT_3D ( 'NONE', #158, #30, #27 ) ;
#132 = EDGE_LOOP ( 'NONE', ( #267, #256 ) ) ;
#133 = COORDINATED_UNIVERSAL_TIME_OFFSET ( 5, 0, .BEHIND. ) ;
#134 = FACE_OUTER_BOUND ( 'NONE', #29, .T. ) ;
#135 = APPROVAL ( #65, 'UNSPECIFIED' ) ;
#136 = CIRCLE ( 'NONE', #156, 1.250000000000000222 ) ;
#137 = CARTESIAN_POINT ( 'NONE',  ( 0.0000000000000000000, 4.459610886253221403E-17, -0.04906675641795851806 ) ) ;
#138 = LOCAL_TIME ( 7, 11, 39.00000000000000000, #196 ) ;
#139 = FACE_OUTER_BOUND ( 'NONE', #71, .T. ) ;
#140 = AXIS2_PLACEMENT_3D ( 'NONE', #301, #26, #278 ) ;
#141 = EDGE_LOOP ( 'NONE', ( #106, #119, #149, #125 ) ) ;
#142 = CARTESIAN_POINT ( 'NONE',  ( 0.0000000000000000000, 9.968295720114155931E-17, -0.2290000000000001756 ) ) ;
#143 = DIRECTION ( 'NONE',  ( 0.0000000000000000000, -3.061515884555948076E-16, 1.000000000000000000 ) ) ;
#144 = DIRECTION ( 'NONE',  ( -0.0000000000000000000, 3.061515884555943146E-16, -1.000000000000000000 ) ) ;
#145 = LINE ( 'NONE', #37, #193 ) ;
#146 = CC_DESIGN_SECURITY_CLASSIFICATION ( #105, ( #77 ) ) ;
#147 = APPROVAL_DATE_TIME ( #60, #135 ) ;
#148 = SPHERICAL_SURFACE ( 'NONE', #14, 3.254000000000012438 ) ;
#149 = ORIENTED_EDGE ( 'NONE', *, *, #15, .T. ) ;
#150 = ADVANCED_FACE ( 'NONE', ( #134 ), #76, .T. ) ;
#151 = DIRECTION ( 'NONE',  ( 0.0000000000000000000, -3.061515884555948076E-16, 1.000000000000000000 ) ) ;
#152 = CONICAL_SURFACE ( 'NONE', #59, 1.269999999999999574, 0.5849254981456631919 ) ;
#153 = CC_DESIGN_PERSON_AND_ORGANIZATION_ASSIGNMENT ( #40, #63, ( #35 ) ) ;
#154 = COORDINATED_UNIVERSAL_TIME_OFFSET ( 5, 0, .BEHIND. ) ;
#155 = CIRCLE ( 'NONE', #177, 1.269999999999999574 ) ;
#156 = AXIS2_PLACEMENT_3D ( 'NONE', #47, #98, #202 ) ;
#157 = ORIENTED_EDGE ( 'NONE', *, *, #70, .T. ) ;
#158 = CARTESIAN_POINT ( 'NONE',  ( 0.0000000000000000000, 4.459610886253221403E-17, -0.04906675641795878173 ) ) ;
#159 = PRODUCT_RELATED_PRODUCT_CATEGORY ( 'detail', '', ( #195 ) ) ;
#160 = ORIENTED_EDGE ( 'NONE', *, *, #289, .F. ) ;
#161 = EDGE_LOOP ( 'NONE', ( #286, #242, #244, #48 ) ) ;
#162 = DIRECTION ( 'NONE',  ( 0.0000000000000000000, 1.000000000000000000, 3.073328992872296860E-16 ) ) ;
#163 = DATE_AND_TIME ( #232, #58 ) ;
#164 = CARTESIAN_POINT ( 'NONE',  ( 0.0000000000000000000, 9.355992543202980613E-17, -0.2090000000000006297 ) ) ;
#165 = CARTESIAN_POINT ( 'NONE',  ( 0.0000000000000000000, -5.616188813662413632E-16, -0.02135293996882933754 ) ) ;
#166 = CARTESIAN_POINT ( 'NONE',  ( 0.0000000000000000000, 9.355992543202980613E-17, -0.2090000000000006297 ) ) ;
#167 = PERSON_AND_ORGANIZATION ( #270, #250 ) ;
#168 = VECTOR ( 'NONE', #276, 99.99999999999998579 ) ;
#169 =( NAMED_UNIT ( * ) PLANE_ANGLE_UNIT ( ) SI_UNIT ( $, .RADIAN. ) );
#170 = APPROVAL_ROLE ( '' ) ;
#171 = CARTESIAN_POINT ( 'NONE',  ( 1.543054966925664829E-16, 1.250000000000000444, -0.2289999999999997871 ) ) ;
#172 = ADVANCED_FACE ( 'NONE', ( #13 ), #255, .T. ) ;
#173 = LINE ( 'NONE', #210, #225 ) ;
#174 = AXIS2_PLACEMENT_3D ( 'NONE', #137, #75, #120 ) ;
#175 = CIRCLE ( 'NONE', #140, 1.250000000000000222 ) ;
#176 = VERTEX_POINT ( 'NONE', #262 ) ;
#177 = AXIS2_PLACEMENT_3D ( 'NONE', #126, #11, #121 ) ;
#178 = CARTESIAN_POINT ( 'NONE',  ( 0.0000000000000000000, 1.269999999999999574, -0.04906675641795838622 ) ) ;
#179 = FACE_OUTER_BOUND ( 'NONE', #161, .T. ) ;
#180 = CONICAL_SURFACE ( 'NONE', #174, 1.269999999999999574, 0.5849254981456631919 ) ;
#181 = CARTESIAN_POINT ( 'NONE',  ( 0.0000000000000000000, -5.616188813662413632E-16, -0.02135293996882933754 ) ) ;
#182 = DIRECTION ( 'NONE',  ( 0.0000000000000000000, -1.000000000000000000, -3.122502256758252277E-16 ) ) ;
#183 = AXIS2_PLACEMENT_3D ( 'NONE', #164, #143, #83 ) ;
#184 = EDGE_LOOP ( 'NONE', ( #223, #114, #89, #8 ) ) ;
#185 = CARTESIAN_POINT ( 'NONE',  ( 0.0000000000000000000, 3.579524372222803188E-16, -3.025000000000011013 ) ) ;
#186 = CARTESIAN_POINT ( 'NONE',  ( 0.0000000000000000000, 9.968295720114155931E-17, -0.2290000000000001756 ) ) ;
#187 = DIRECTION ( 'NONE',  ( -0.0000000000000000000, 3.061515884555943146E-16, -1.000000000000000000 ) ) ;
#188 = CIRCLE ( 'NONE', #240, 3.254000000000012438 ) ;
#189 = APPLICATION_PROTOCOL_DEFINITION ( 'international standard', 'config_control_design', 1994, #243 ) ;
#190 = APPLICATION_PROTOCOL_DEFINITION ( 'international standard', 'config_control_design', 1994, #292 ) ;
#191 = PERSON_AND_ORGANIZATION_ROLE ( 'creator' ) ;
#192 = ADVANCED_FACE ( 'NONE', ( #274 ), #93, .T. ) ;
#193 = VECTOR ( 'NONE', #229, 100.0000000000000000 ) ;
#194 = CARTESIAN_POINT ( 'NONE',  ( 0.0000000000000000000, 0.0000000000000000000, 0.0000000000000000000 ) ) ;
#195 = PRODUCT ( '20133-E0W', '20133-E0W', '', ( #213 ) ) ;
#196 = COORDINATED_UNIVERSAL_TIME_OFFSET ( 5, 0, .BEHIND. ) ;
#197 = FACE_OUTER_BOUND ( 'NONE', #3, .T. ) ;
#198 = AXIS2_PLACEMENT_3D ( 'NONE', #165, #254, #10 ) ;
#199 = LINE ( 'NONE', #253, #168 ) ;
#200 = AXIS2_PLACEMENT_3D ( 'NONE', #209, #235, #287 ) ;
#201 = EDGE_CURVE ( 'NONE', #107, #176, #145, .T. ) ;
#202 = DIRECTION ( 'NONE',  ( 0.0000000000000000000, 1.000000000000000000, 3.122502256758252277E-16 ) ) ;
#203 = CONICAL_SURFACE ( 'NONE', #221, 1.250000000000000222, 0.7853981633974439491 ) ;
#204 = DIRECTION ( 'NONE',  ( 0.0000000000000000000, 1.000000000000000000, 3.053426808141229020E-16 ) ) ;
#205 = DIRECTION ( 'NONE',  ( 1.000000000000000000, 1.224646799147353207E-16, 3.749275628560213616E-32 ) ) ;
#206 = AXIS2_PLACEMENT_3D ( 'NONE', #5, #234, #162 ) ;
#207 = CIRCLE ( 'NONE', #183, 1.269999999999999574 ) ;
#208 = VERTEX_POINT ( 'NONE', #6 ) ;
#209 = CARTESIAN_POINT ( 'NONE',  ( 0.0000000000000000000, 3.579524372222803188E-16, -3.025000000000011013 ) ) ;
#210 = CARTESIAN_POINT ( 'NONE',  ( 0.0000000000000000000, -1.250000000000000000, -0.2290000000000005642 ) ) ;
#211 = DIRECTION ( 'NONE',  ( 0.0000000000000000000, -3.061515884555948076E-16, 1.000000000000000000 ) ) ;
#212 = ADVANCED_FACE ( 'NONE', ( #197 ), #18, .T. ) ;
#213 = MECHANICAL_CONTEXT ( 'NONE', #292, 'mechanical' ) ;
#214 = PERSON_AND_ORGANIZATION ( #270, #250 ) ;
#215 = CIRCLE ( 'NONE', #131, 1.269999999999999574 ) ;
#216 = VERTEX_POINT ( 'NONE', #259 ) ;
#217 = DATE_TIME_ROLE ( 'creation_date' ) ;
#218 = AXIS2_PLACEMENT_3D ( 'NONE', #186, #57, #182 ) ;
#219 = DIRECTION ( 'NONE',  ( 1.000000000000000000, 0.0000000000000000000, 0.0000000000000000000 ) ) ;
#220 = VERTEX_POINT ( 'NONE', #281 ) ;
#221 = AXIS2_PLACEMENT_3D ( 'NONE', #142, #211, #127 ) ;
#222 = ORIENTED_EDGE ( 'NONE', *, *, #271, .F. ) ;
#223 = ORIENTED_EDGE ( 'NONE', *, *, #277, .F. ) ;
#224 = CC_DESIGN_DATE_AND_TIME_ASSIGNMENT ( #291, #217, ( #35 ) ) ;
#225 = VECTOR ( 'NONE', #123, 100.0000000000000000 ) ;
#226 = VERTEX_POINT ( 'NONE', #257 ) ;
#227 = ORIENTED_EDGE ( 'NONE', *, *, #201, .F. ) ;
#228 = DIRECTION ( 'NONE',  ( -1.224646799147353207E-16, 1.000000000000000000, 0.0000000000000000000 ) ) ;
#229 = DIRECTION ( 'NONE',  ( -0.0000000000000000000, 3.061515884555943146E-16, -1.000000000000000000 ) ) ;
#230 = AXIS2_PLACEMENT_3D ( 'NONE', #101, #85, #233 ) ;
#231 = DIRECTION ( 'NONE',  ( 0.0000000000000000000, 0.0000000000000000000, 1.000000000000000000 ) ) ;
#232 = CALENDAR_DATE ( 2019, 16, 7 ) ;
#233 = DIRECTION ( 'NONE',  ( 0.0000000000000000000, 1.000000000000000000, 3.073328992872296860E-16 ) ) ;
#234 = DIRECTION ( 'NONE',  ( -0.0000000000000000000, 3.061515884555943146E-16, -1.000000000000000000 ) ) ;
#235 = DIRECTION ( 'NONE',  ( 1.000000000000000000, 0.0000000000000000000, -0.0000000000000000000 ) ) ;
#236 = DIRECTION ( 'NONE',  ( 0.0000000000000000000, 1.000000000000000000, 3.073328992872296860E-16 ) ) ;
#237 = CALENDAR_DATE ( 2019, 16, 7 ) ;
#238 = ORIENTED_EDGE ( 'NONE', *, *, #115, .T. ) ;
#239 = PERSON_AND_ORGANIZATION_ROLE ( 'design_supplier' ) ;
#240 = AXIS2_PLACEMENT_3D ( 'NONE', #52, #205, #228 ) ;
#241 =( LENGTH_UNIT ( ) NAMED_UNIT ( * ) SI_UNIT ( .CENTI., .METRE. ) );
#242 = ORIENTED_EDGE ( 'NONE', *, *, #2, .T. ) ;
#243 = APPLICATION_CONTEXT ( 'configuration controlled 3d designs of mechanical parts and assemblies' ) ;
#244 = ORIENTED_EDGE ( 'NONE', *, *, #24, .F. ) ;
#245 = APPROVAL_PERSON_ORGANIZATION ( #214, #135, #170 ) ;
#246 = FACE_OUTER_BOUND ( 'NONE', #141, .T. ) ;
#247 = PERSON_AND_ORGANIZATION ( #270, #250 ) ;
#248 = CIRCLE ( 'NONE', #198, 1.251647050396445637 ) ;
#249 = ADVANCED_BREP_SHAPE_REPRESENTATION ( '20133-E0W', ( #9, #252 ), #282 ) ;
#250 = ORGANIZATION ( 'UNSPECIFIED', 'UNSPECIFIED', '' ) ;
#251 = CIRCLE ( 'NONE', #97, 3.254000000000012438 ) ;
#252 = AXIS2_PLACEMENT_3D ( 'NONE', #194, #16, #219 ) ;
#253 = CARTESIAN_POINT ( 'NONE',  ( 1.555301434917138087E-16, -1.269999999999999574, -0.04906675641795890663 ) ) ;
#254 = DIRECTION ( 'NONE',  ( 0.0000000000000000000, -3.061515884555941666E-16, 1.000000000000000000 ) ) ;
#255 = CYLINDRICAL_SURFACE ( 'NONE', #230, 1.269999999999999574 ) ;
#256 = ORIENTED_EDGE ( 'NONE', *, *, #51, .T. ) ;
#257 = CARTESIAN_POINT ( 'NONE',  ( 1.555301434917138087E-16, -1.269999999999999574, -0.04906675641795917031 ) ) ;
#258 = DIRECTION ( 'NONE',  ( -1.000000000000000000, 0.0000000000000000000, 0.0000000000000000000 ) ) ;
#259 = CARTESIAN_POINT ( 'NONE',  ( 0.0000000000000000000, 1.251647050396444527, -0.02135293996882862630 ) ) ;
#260 = PERSON_AND_ORGANIZATION ( #270, #250 ) ;
#261 = ORIENTED_EDGE ( 'NONE', *, *, #38, .T. ) ;
#262 = CARTESIAN_POINT ( 'NONE',  ( 0.0000000000000000000, 1.269999999999999796, -0.2090000000000002411 ) ) ;
#263 = APPROVAL_ROLE ( '' ) ;
#264 =( NAMED_UNIT ( * ) SI_UNIT ( $, .STERADIAN. ) SOLID_ANGLE_UNIT ( ) );
#265 = ADVANCED_FACE ( 'NONE', ( #124 ), #203, .T. ) ;
#266 = PERSON_AND_ORGANIZATION_ROLE ( 'classification_officer' ) ;
#267 = ORIENTED_EDGE ( 'NONE', *, *, #84, .T. ) ;
#268 = ADVANCED_FACE ( 'NONE', ( #66 ), #128, .T. ) ;
#269 = EDGE_CURVE ( 'NONE', #220, #216, #248, .T. ) ;
#270 = PERSON ( 'UNSPECIFIED', 'UNSPECIFIED', 'UNSPECIFIED', ('UNSPECIFIED'), ('UNSPECIFIED'), ('UNSPECIFIED') ) ;
#271 = EDGE_CURVE ( 'NONE', #226, #103, #90, .T. ) ;
#272 = DATE_AND_TIME ( #96, #102 ) ;
#273 = CC_DESIGN_APPROVAL ( #112, ( #105 ) ) ;
#274 = FACE_OUTER_BOUND ( 'NONE', #296, .T. ) ;
#275 = PERSON_AND_ORGANIZATION ( #270, #250 ) ;
#276 = DIRECTION ( 'NONE',  ( 6.761731375804908581E-17, -0.5521372677014046992, -0.8337532234511765283 ) ) ;
#277 = EDGE_CURVE ( 'NONE', #299, #176, #86, .T. ) ;
#278 = DIRECTION ( 'NONE',  ( 0.0000000000000000000, 1.000000000000000000, 3.122502256758252277E-16 ) ) ;
#279 = ORIENTED_EDGE ( 'NONE', *, *, #297, .F. ) ;
#280 = CLOSED_SHELL ( 'NONE', ( #294, #150, #212, #192, #268, #108, #172, #265, #20 ) ) ;
#281 = CARTESIAN_POINT ( 'NONE',  ( 1.532825553930232296E-16, -1.251647050396445415, -0.02135293996882970183 ) ) ;
#282 =( GEOMETRIC_REPRESENTATION_CONTEXT ( 3 ) GLOBAL_UNCERTAINTY_ASSIGNED_CONTEXT ( ( #284 ) ) GLOBAL_UNIT_ASSIGNED_CONTEXT ( ( #241, #169, #264 ) ) REPRESENTATION_CONTEXT ( 'NONE', 'WORKASPACE' ) );
#283 = CARTESIAN_POINT ( 'NONE',  ( 1.555301434917138087E-16, -1.269999999999999352, -0.2290000000000003699 ) ) ;
#284 = UNCERTAINTY_MEASURE_WITH_UNIT (LENGTH_MEASURE( 1.000000000000000082E-05 ), #241, 'distance_accuracy_value', 'NONE');
#285 = CARTESIAN_POINT ( 'NONE',  ( 1.555301434917138087E-16, -1.269999999999999352, -0.2090000000000010183 ) ) ;
#286 = ORIENTED_EDGE ( 'NONE', *, *, #269, .F. ) ;
#287 = DIRECTION ( 'NONE',  ( 0.0000000000000000000, 1.000000000000000000, 3.198629642243639471E-16 ) ) ;
#288 = DIRECTION ( 'NONE',  ( -0.0000000000000000000, 3.061515884555941666E-16, -1.000000000000000000 ) ) ;
#289 = EDGE_CURVE ( 'NONE', #208, #103, #173, .T. ) ;
#290 = DIRECTION ( 'NONE',  ( 0.0000000000000000000, 1.000000000000000000, 3.073328992872296860E-16 ) ) ;
#291 = DATE_AND_TIME ( #12, #110 ) ;
#292 = APPLICATION_CONTEXT ( 'configuration controlled 3d designs of mechanical parts and assemblies' ) ;
#293 = ORIENTED_EDGE ( 'NONE', *, *, #269, .T. ) ;
#294 = ADVANCED_FACE ( 'NONE', ( #179 ), #152, .T. ) ;
#295 = SHAPE_DEFINITION_REPRESENTATION ( #21, #249 ) ;
#296 = EDGE_LOOP ( 'NONE', ( #94, #157, #293 ) ) ;
#297 = EDGE_CURVE ( 'NONE', #103, #176, #99, .T. ) ;
#298 = APPROVAL_DATE_TIME ( #272, #67 ) ;
#299 = VERTEX_POINT ( 'NONE', #171 ) ;
#300 = CARTESIAN_POINT ( 'NONE',  ( 0.0000000000000000000, -4.390147973909521899E-16, 0.2290000000000014246 ) ) ;
#301 = CARTESIAN_POINT ( 'NONE',  ( 0.0000000000000000000, 9.968295720114154698E-17, -0.2290000000000001756 ) ) ;
ENDSEC;
END-ISO-10303-21;
