ISO-10303-21;
HEADER;
FILE_DESCRIPTION (( 'STEP AP203' ),
    '1' );
FILE_NAME ('Web Model 33033_33035.step',
    '2019-05-20T15:06:07',
    ( '' ),
    ( '' ),
    'SwSTEP 2.0',
    'SolidWorks 2018',
    '' );
FILE_SCHEMA (( 'CONFIG_CONTROL_DESIGN' ));
ENDSEC;

DATA;
#1 =( NAMED_UNIT ( * ) PLANE_ANGLE_UNIT ( ) SI_UNIT ( $, .RADIAN. ) );
#2 = DATE_TIME_ROLE ( 'creation_date' ) ;
#3 = APPROVAL_DATE_TIME ( #40, #23 ) ;
#4 = CIRCLE ( 'NONE', #135, 12.69999999999999929 ) ;
#5 = PERSON_AND_ORGANIZATION ( #87, #43 ) ;
#6 = CALENDAR_DATE ( 2019, 20, 5 ) ;
#7 = EDGE_CURVE ( 'NONE', #89, #169, #85, .T. ) ;
#8 = FACE_OUTER_BOUND ( 'NONE', #124, .T. ) ;
#9 = UNCERTAINTY_MEASURE_WITH_UNIT (LENGTH_MEASURE( 1.000000000000000082E-05 ), #163, 'distance_accuracy_value', 'NONE');
#10 = APPROVAL_DATE_TIME ( #56, #59 ) ;
#11 = EDGE_CURVE ( 'NONE', #169, #89, #111, .T. ) ;
#12 = VERTEX_POINT ( 'NONE', #122 ) ;
#13 = PERSON_AND_ORGANIZATION ( #87, #43 ) ;
#14 = ORIENTED_EDGE ( 'NONE', *, *, #11, .F. ) ;
#15 = APPROVAL_DATE_TIME ( #34, #91 ) ;
#16 = CARTESIAN_POINT ( 'NONE',  ( 0.0000000000000000000, 12.69999999999999929, 2.500000000000000444 ) ) ;
#17 = PERSON_AND_ORGANIZATION ( #87, #43 ) ;
#18 =( NAMED_UNIT ( * ) SI_UNIT ( $, .STERADIAN. ) SOLID_ANGLE_UNIT ( ) );
#19 = APPLICATION_CONTEXT ( 'configuration controlled 3d designs of mechanical parts and assemblies' ) ;
#20 = DIRECTION ( 'NONE',  ( -0.0000000000000000000, -0.0000000000000000000, 1.000000000000000000 ) ) ;
#21 = COORDINATED_UNIVERSAL_TIME_OFFSET ( 5, 0, .BEHIND. ) ;
#22 = DIRECTION ( 'NONE',  ( 1.000000000000000000, 0.0000000000000000000, 0.0000000000000000000 ) ) ;
#23 = APPROVAL ( #96, 'UNSPECIFIED' ) ;
#24 = CALENDAR_DATE ( 2019, 20, 5 ) ;
#25 = PRODUCT_RELATED_PRODUCT_CATEGORY ( 'detail', '', ( #86 ) ) ;
#26 = AXIS2_PLACEMENT_3D ( 'NONE', #145, #70, #22 ) ;
#27 = CARTESIAN_POINT ( 'NONE',  ( 0.0000000000000000000, 0.0000000000000000000, 2.500000000000001332 ) ) ;
#28 = DIRECTION ( 'NONE',  ( 1.000000000000000000, 0.0000000000000000000, 0.0000000000000000000 ) ) ;
#29 = DIRECTION ( 'NONE',  ( 1.000000000000000000, 0.0000000000000000000, 0.0000000000000000000 ) ) ;
#30 = APPROVAL_STATUS ( 'not_yet_approved' ) ;
#31 = ORIENTED_EDGE ( 'NONE', *, *, #7, .T. ) ;
#32 = LOCAL_TIME ( 11, 6, 7.000000000000000000, #148 ) ;
#33 = DIRECTION ( 'NONE',  ( 0.0000000000000000000, 0.0000000000000000000, -1.000000000000000000 ) ) ;
#34 = DATE_AND_TIME ( #35, #90 ) ;
#35 = CALENDAR_DATE ( 2019, 20, 5 ) ;
#36 = AXIS2_PLACEMENT_3D ( 'NONE', #44, #20, #92 ) ;
#37 = LINE ( 'NONE', #78, #144 ) ;
#38 = SHAPE_DEFINITION_REPRESENTATION ( #117, #71 ) ;
#39 = ORIENTED_EDGE ( 'NONE', *, *, #100, .F. ) ;
#40 = DATE_AND_TIME ( #24, #83 ) ;
#41 = AXIS2_PLACEMENT_3D ( 'NONE', #76, #127, #29 ) ;
#42 = FACE_OUTER_BOUND ( 'NONE', #115, .T. ) ;
#43 = ORGANIZATION ( 'UNSPECIFIED', 'UNSPECIFIED', '' ) ;
#44 = CARTESIAN_POINT ( 'NONE',  ( 0.0000000000000000000, 0.0000000000000000000, 2.500000000000001332 ) ) ;
#45 = APPLICATION_PROTOCOL_DEFINITION ( 'international standard', 'config_control_design', 1994, #141 ) ;
#46 = ORIENTED_EDGE ( 'NONE', *, *, #84, .F. ) ;
#47 = COORDINATED_UNIVERSAL_TIME_OFFSET ( 5, 0, .BEHIND. ) ;
#48 = CC_DESIGN_PERSON_AND_ORGANIZATION_ASSIGNMENT ( #17, #165, ( #82 ) ) ;
#49 = APPROVAL_ROLE ( '' ) ;
#50 = APPLICATION_PROTOCOL_DEFINITION ( 'international standard', 'config_control_design', 1994, #19 ) ;
#51 = ORIENTED_EDGE ( 'NONE', *, *, #138, .F. ) ;
#52 = PERSON_AND_ORGANIZATION ( #87, #43 ) ;
#53 = CC_DESIGN_PERSON_AND_ORGANIZATION_ASSIGNMENT ( #60, #128, ( #86 ) ) ;
#54 = CC_DESIGN_DATE_AND_TIME_ASSIGNMENT ( #119, #2, ( #82 ) ) ;
#55 = ORIENTED_EDGE ( 'NONE', *, *, #123, .F. ) ;
#56 = DATE_AND_TIME ( #6, #137 ) ;
#57 = DIRECTION ( 'NONE',  ( -0.0000000000000000000, -0.0000000000000000000, 1.000000000000000000 ) ) ;
#58 = AXIS2_PLACEMENT_3D ( 'NONE', #132, #153, #166 ) ;
#59 = APPROVAL ( #30, 'UNSPECIFIED' ) ;
#60 = PERSON_AND_ORGANIZATION ( #87, #43 ) ;
#61 = CARTESIAN_POINT ( 'NONE',  ( 12.69999999999999929, 0.0000000000000000000, 2.500000000000001332 ) ) ;
#62 = ORIENTED_EDGE ( 'NONE', *, *, #11, .T. ) ;
#63 = APPROVAL_ROLE ( '' ) ;
#64 = DIRECTION ( 'NONE',  ( -0.0000000000000000000, -0.0000000000000000000, 1.000000000000000000 ) ) ;
#65 = PERSON_AND_ORGANIZATION_ROLE ( 'design_supplier' ) ;
#66 = AXIS2_PLACEMENT_3D ( 'NONE', #133, #57, #69 ) ;
#67 = ADVANCED_FACE ( 'NONE', ( #8 ), #160, .F. ) ;
#68 = ADVANCED_FACE ( 'NONE', ( #118 ), #173, .T. ) ;
#69 = DIRECTION ( 'NONE',  ( 1.000000000000000000, 0.0000000000000000000, 0.0000000000000000000 ) ) ;
#70 = DIRECTION ( 'NONE',  ( -0.0000000000000000000, -0.0000000000000000000, 1.000000000000000000 ) ) ;
#71 = ADVANCED_BREP_SHAPE_REPRESENTATION ( 'Web Model 33033_33035', ( #170, #41 ), #168 ) ;
#72 = PRODUCT_DEFINITION_FORMATION_WITH_SPECIFIED_SOURCE ( 'ANY', '', #86, .NOT_KNOWN. ) ;
#73 = ORIENTED_EDGE ( 'NONE', *, *, #84, .T. ) ;
#74 = PERSON_AND_ORGANIZATION ( #87, #43 ) ;
#75 = LINE ( 'NONE', #61, #161 ) ;
#76 = CARTESIAN_POINT ( 'NONE',  ( 0.0000000000000000000, 0.0000000000000000000, 0.0000000000000000000 ) ) ;
#77 = CARTESIAN_POINT ( 'NONE',  ( 0.0000000000000000000, 0.0000000000000000000, 2.500000000000000000 ) ) ;
#78 = CARTESIAN_POINT ( 'NONE',  ( -12.69999999999999929, 1.555301434917138433E-15, 2.500000000000001332 ) ) ;
#79 = COORDINATED_UNIVERSAL_TIME_OFFSET ( 5, 0, .BEHIND. ) ;
#80 = SECURITY_CLASSIFICATION_LEVEL ( 'unclassified' ) ;
#81 = PERSON_AND_ORGANIZATION_ROLE ( 'classification_officer' ) ;
#82 = PRODUCT_DEFINITION ( 'UNKNOWN', '', #72, #99 ) ;
#83 = LOCAL_TIME ( 11, 6, 7.000000000000000000, #151 ) ;
#84 = EDGE_CURVE ( 'NONE', #150, #12, #4, .T. ) ;
#85 = CIRCLE ( 'NONE', #66, 12.69999999999999929 ) ;
#86 = PRODUCT ( 'Web Model 33033_33035', 'Web Model 33033_33035', '', ( #155 ) ) ;
#87 = PERSON ( 'UNSPECIFIED', 'UNSPECIFIED', 'UNSPECIFIED', ('UNSPECIFIED'), ('UNSPECIFIED'), ('UNSPECIFIED') ) ;
#88 = CC_DESIGN_APPROVAL ( #59, ( #72 ) ) ;
#89 = VERTEX_POINT ( 'NONE', #114 ) ;
#90 = LOCAL_TIME ( 11, 6, 7.000000000000000000, #47 ) ;
#91 = APPROVAL ( #116, 'UNSPECIFIED' ) ;
#92 = DIRECTION ( 'NONE',  ( 1.000000000000000000, 0.0000000000000000000, 0.0000000000000000000 ) ) ;
#93 = DIRECTION ( 'NONE',  ( -0.0000000000000000000, -0.0000000000000000000, 1.000000000000000000 ) ) ;
#94 = LOCAL_TIME ( 11, 6, 7.000000000000000000, #21 ) ;
#95 = DIRECTION ( 'NONE',  ( 1.000000000000000000, 0.0000000000000000000, 0.0000000000000000000 ) ) ;
#96 = APPROVAL_STATUS ( 'not_yet_approved' ) ;
#97 = ADVANCED_FACE ( 'NONE', ( #42 ), #156, .F. ) ;
#98 = CC_DESIGN_DATE_AND_TIME_ASSIGNMENT ( #172, #167, ( #164 ) ) ;
#99 = DESIGN_CONTEXT ( 'detailed design', #19, 'design' ) ;
#100 = EDGE_CURVE ( 'NONE', #89, #150, #37, .T. ) ;
#101 = CARTESIAN_POINT ( 'NONE',  ( 0.0000000000000000000, 0.0000000000000000000, 2.500000000000000000 ) ) ;
#102 = DIRECTION ( 'NONE',  ( -0.0000000000000000000, -0.0000000000000000000, 1.000000000000000000 ) ) ;
#103 = CARTESIAN_POINT ( 'NONE',  ( -12.69999999999999929, 1.555301434917138433E-15, 2.500000000000000000 ) ) ;
#104 = CC_DESIGN_APPROVAL ( #23, ( #164 ) ) ;
#105 = DIRECTION ( 'NONE',  ( 1.000000000000000000, 0.0000000000000000000, 0.0000000000000000000 ) ) ;
#106 = APPROVAL_ROLE ( '' ) ;
#107 = EDGE_LOOP ( 'NONE', ( #39, #31, #157, #46 ) ) ;
#108 = CC_DESIGN_PERSON_AND_ORGANIZATION_ASSIGNMENT ( #13, #142, ( #72 ) ) ;
#109 = ORIENTED_EDGE ( 'NONE', *, *, #7, .F. ) ;
#110 = APPROVAL_PERSON_ORGANIZATION ( #126, #91, #63 ) ;
#111 = CIRCLE ( 'NONE', #26, 12.69999999999999929 ) ;
#112 = FACE_OUTER_BOUND ( 'NONE', #107, .T. ) ;
#113 = APPROVAL_PERSON_ORGANIZATION ( #52, #23, #106 ) ;
#114 = CARTESIAN_POINT ( 'NONE',  ( -12.69999999999999929, 1.555301434917138433E-15, -2.499999999999999556 ) ) ;
#115 = EDGE_LOOP ( 'NONE', ( #146, #73 ) ) ;
#116 = APPROVAL_STATUS ( 'not_yet_approved' ) ;
#117 = PRODUCT_DEFINITION_SHAPE ( 'NONE', 'NONE',  #82 ) ;
#118 = FACE_OUTER_BOUND ( 'NONE', #136, .T. ) ;
#119 = DATE_AND_TIME ( #134, #94 ) ;
#120 = ADVANCED_FACE ( 'NONE', ( #112 ), #158, .T. ) ;
#121 = ORIENTED_EDGE ( 'NONE', *, *, #100, .T. ) ;
#122 = CARTESIAN_POINT ( 'NONE',  ( 12.69999999999999929, 0.0000000000000000000, 2.500000000000000000 ) ) ;
#123 = EDGE_CURVE ( 'NONE', #12, #150, #147, .T. ) ;
#124 = EDGE_LOOP ( 'NONE', ( #14, #109 ) ) ;
#125 = CALENDAR_DATE ( 2019, 20, 5 ) ;
#126 = PERSON_AND_ORGANIZATION ( #87, #43 ) ;
#127 = DIRECTION ( 'NONE',  ( 0.0000000000000000000, 0.0000000000000000000, 1.000000000000000000 ) ) ;
#128 = PERSON_AND_ORGANIZATION_ROLE ( 'design_owner' ) ;
#129 = APPROVAL_PERSON_ORGANIZATION ( #5, #59, #49 ) ;
#130 = AXIS2_PLACEMENT_3D ( 'NONE', #27, #64, #95 ) ;
#131 = CC_DESIGN_APPROVAL ( #91, ( #82 ) ) ;
#132 = CARTESIAN_POINT ( 'NONE',  ( 0.0000000000000000000, 12.69999999999999929, -2.500000000000000444 ) ) ;
#133 = CARTESIAN_POINT ( 'NONE',  ( 0.0000000000000000000, 0.0000000000000000000, -2.499999999999999556 ) ) ;
#134 = CALENDAR_DATE ( 2019, 20, 5 ) ;
#135 = AXIS2_PLACEMENT_3D ( 'NONE', #77, #140, #105 ) ;
#136 = EDGE_LOOP ( 'NONE', ( #62, #121, #55, #51 ) ) ;
#137 = LOCAL_TIME ( 11, 6, 7.000000000000000000, #79 ) ;
#138 = EDGE_CURVE ( 'NONE', #169, #12, #75, .T. ) ;
#139 = DIRECTION ( 'NONE',  ( -1.000000000000000000, 0.0000000000000000000, -0.0000000000000000000 ) ) ;
#140 = DIRECTION ( 'NONE',  ( -0.0000000000000000000, -0.0000000000000000000, 1.000000000000000000 ) ) ;
#141 = APPLICATION_CONTEXT ( 'configuration controlled 3d designs of mechanical parts and assemblies' ) ;
#142 = PERSON_AND_ORGANIZATION_ROLE ( 'creator' ) ;
#143 = AXIS2_PLACEMENT_3D ( 'NONE', #16, #33, #139 ) ;
#144 = VECTOR ( 'NONE', #93, 1000.000000000000000 ) ;
#145 = CARTESIAN_POINT ( 'NONE',  ( 0.0000000000000000000, 0.0000000000000000000, -2.499999999999999556 ) ) ;
#146 = ORIENTED_EDGE ( 'NONE', *, *, #123, .T. ) ;
#147 = CIRCLE ( 'NONE', #149, 12.69999999999999929 ) ;
#148 = COORDINATED_UNIVERSAL_TIME_OFFSET ( 5, 0, .BEHIND. ) ;
#149 = AXIS2_PLACEMENT_3D ( 'NONE', #101, #102, #28 ) ;
#150 = VERTEX_POINT ( 'NONE', #103 ) ;
#151 = COORDINATED_UNIVERSAL_TIME_OFFSET ( 5, 0, .BEHIND. ) ;
#152 = CARTESIAN_POINT ( 'NONE',  ( 12.69999999999999929, 0.0000000000000000000, -2.499999999999999556 ) ) ;
#153 = DIRECTION ( 'NONE',  ( 0.0000000000000000000, -0.0000000000000000000, 1.000000000000000000 ) ) ;
#154 = PERSON_AND_ORGANIZATION ( #87, #43 ) ;
#155 = MECHANICAL_CONTEXT ( 'NONE', #141, 'mechanical' ) ;
#156 = PLANE ( 'NONE',  #143 ) ;
#157 = ORIENTED_EDGE ( 'NONE', *, *, #138, .T. ) ;
#158 = CYLINDRICAL_SURFACE ( 'NONE', #36, 12.69999999999999929 ) ;
#159 = CC_DESIGN_PERSON_AND_ORGANIZATION_ASSIGNMENT ( #74, #65, ( #72 ) ) ;
#160 = PLANE ( 'NONE',  #58 ) ;
#161 = VECTOR ( 'NONE', #175, 1000.000000000000000 ) ;
#162 = CLOSED_SHELL ( 'NONE', ( #68, #97, #67, #120 ) ) ;
#163 =( LENGTH_UNIT ( ) NAMED_UNIT ( * ) SI_UNIT ( .MILLI., .METRE. ) );
#164 = SECURITY_CLASSIFICATION ( '', '', #80 ) ;
#165 = PERSON_AND_ORGANIZATION_ROLE ( 'creator' ) ;
#166 = DIRECTION ( 'NONE',  ( 1.000000000000000000, 0.0000000000000000000, 0.0000000000000000000 ) ) ;
#167 = DATE_TIME_ROLE ( 'classification_date' ) ;
#168 =( GEOMETRIC_REPRESENTATION_CONTEXT ( 3 ) GLOBAL_UNCERTAINTY_ASSIGNED_CONTEXT ( ( #9 ) ) GLOBAL_UNIT_ASSIGNED_CONTEXT ( ( #163, #1, #18 ) ) REPRESENTATION_CONTEXT ( 'NONE', 'WORKASPACE' ) );
#169 = VERTEX_POINT ( 'NONE', #152 ) ;
#170 = MANIFOLD_SOLID_BREP ( 'Revolve1', #162 ) ;
#171 = CC_DESIGN_PERSON_AND_ORGANIZATION_ASSIGNMENT ( #154, #81, ( #164 ) ) ;
#172 = DATE_AND_TIME ( #125, #32 ) ;
#173 = CYLINDRICAL_SURFACE ( 'NONE', #130, 12.69999999999999929 ) ;
#174 = CC_DESIGN_SECURITY_CLASSIFICATION ( #164, ( #72 ) ) ;
#175 = DIRECTION ( 'NONE',  ( -0.0000000000000000000, -0.0000000000000000000, 1.000000000000000000 ) ) ;
ENDSEC;
END-ISO-10303-21;
