ISO-10303-21;
HEADER;
FILE_DESCRIPTION (( 'STEP AP203' ),
    '1' );
FILE_NAME ('Web Model 19724_19726.step',
    '2021-11-02T19:07:28',
    ( '' ),
    ( '' ),
    'SwSTEP 2.0',
    'SolidWorks 2018',
    '' );
FILE_SCHEMA (( 'CONFIG_CONTROL_DESIGN' ));
ENDSEC;

DATA;
#1 = APPROVAL ( #63, 'UNSPECIFIED' ) ;
#2 = APPROVAL_DATE_TIME ( #64, #30 ) ;
#3 = DIRECTION ( 'NONE',  ( 0.000000000000000000, 0.000000000000000000, 1.000000000000000000 ) ) ;
#4 = ADVANCED_FACE ( 'NONE', ( #45 ), #94, .F. ) ;
#5 = ORIENTED_EDGE ( 'NONE', *, *, #24, .T. ) ;
#6 = PRODUCT_DEFINITION ( 'UNKNOWN', '', #142, #17 ) ;
#7 = DIRECTION ( 'NONE',  ( 0.000000000000000000, 0.000000000000000000, 1.000000000000000000 ) ) ;
#8 = UNCERTAINTY_MEASURE_WITH_UNIT (LENGTH_MEASURE( 1.000000000000000082E-05 ), #48, 'distance_accuracy_value', 'NONE');
#9 = APPLICATION_PROTOCOL_DEFINITION ( 'international standard', 'config_control_design', 1994, #68 ) ;
#10 = CC_DESIGN_APPROVAL ( #1, ( #170 ) ) ;
#11 = APPROVAL_ROLE ( '' ) ;
#12 = SHAPE_DEFINITION_REPRESENTATION ( #144, #38 ) ;
#13 = ORIENTED_EDGE ( 'NONE', *, *, #158, .F. ) ;
#14 = CC_DESIGN_APPROVAL ( #30, ( #142 ) ) ;
#15 = EDGE_CURVE ( 'NONE', #174, #74, #85, .T. ) ;
#16 = DATE_AND_TIME ( #163, #49 ) ;
#17 = DESIGN_CONTEXT ( 'detailed design', #68, 'design' ) ;
#18 = APPROVAL ( #46, 'UNSPECIFIED' ) ;
#19 = DIRECTION ( 'NONE',  ( -0.000000000000000000, -0.000000000000000000, -1.000000000000000000 ) ) ;
#20 = CC_DESIGN_SECURITY_CLASSIFICATION ( #170, ( #142 ) ) ;
#21 = PLANE ( 'NONE',  #92 ) ;
#22 = VECTOR ( 'NONE', #19, 1000.000000000000000 ) ;
#23 = CARTESIAN_POINT ( 'NONE',  ( 0.000000000000000000, 0.000000000000000000, 0.000000000000000000 ) ) ;
#24 = EDGE_CURVE ( 'NONE', #50, #74, #73, .T. ) ;
#25 = CARTESIAN_POINT ( 'NONE',  ( 0.000000000000000000, 0.000000000000000000, 0.000000000000000000 ) ) ;
#26 = CARTESIAN_POINT ( 'NONE',  ( 0.000000000000000000, 0.000000000000000000, 1.000000000000000000 ) ) ;
#27 = AXIS2_PLACEMENT_3D ( 'NONE', #65, #3, #91 ) ;
#28 = APPROVAL_DATE_TIME ( #16, #18 ) ;
#29 = DIRECTION ( 'NONE',  ( -1.000000000000000000, 0.000000000000000000, 0.000000000000000000 ) ) ;
#30 = APPROVAL ( #97, 'UNSPECIFIED' ) ;
#31 = LOCAL_TIME ( 15, 7, 28.00000000000000000, #60 ) ;
#32 = FACE_OUTER_BOUND ( 'NONE', #66, .T. ) ;
#33 = ORIENTED_EDGE ( 'NONE', *, *, #159, .T. ) ;
#34 = PERSON_AND_ORGANIZATION_ROLE ( 'classification_officer' ) ;
#35 = AXIS2_PLACEMENT_3D ( 'NONE', #23, #76, #93 ) ;
#36 = MECHANICAL_CONTEXT ( 'NONE', #95, 'mechanical' ) ;
#37 = APPROVAL_PERSON_ORGANIZATION ( #110, #30, #69 ) ;
#38 = ADVANCED_BREP_SHAPE_REPRESENTATION ( 'Web Model 19724_19726', ( #131, #84 ), #126 ) ;
#39 = VECTOR ( 'NONE', #75, 1000.000000000000000 ) ;
#40 = DATE_AND_TIME ( #124, #31 ) ;
#41 = CARTESIAN_POINT ( 'NONE',  ( 0.000000000000000000, 0.000000000000000000, 0.000000000000000000 ) ) ;
#42 = ORIENTED_EDGE ( 'NONE', *, *, #24, .F. ) ;
#43 = ORIENTED_EDGE ( 'NONE', *, *, #112, .T. ) ;
#44 = CARTESIAN_POINT ( 'NONE',  ( 0.000000000000000000, 0.000000000000000000, 1.000000000000000000 ) ) ;
#45 = FACE_OUTER_BOUND ( 'NONE', #119, .T. ) ;
#46 = APPROVAL_STATUS ( 'not_yet_approved' ) ;
#47 = DIRECTION ( 'NONE',  ( 1.000000000000000000, 0.000000000000000000, 0.000000000000000000 ) ) ;
#48 =( LENGTH_UNIT ( ) NAMED_UNIT ( * ) SI_UNIT ( .MILLI., .METRE. ) );
#49 = LOCAL_TIME ( 15, 7, 28.00000000000000000, #153 ) ;
#50 = VERTEX_POINT ( 'NONE', #133 ) ;
#51 = CALENDAR_DATE ( 2021, 2, 11 ) ;
#52 = FACE_OUTER_BOUND ( 'NONE', #57, .T. ) ;
#53 = AXIS2_PLACEMENT_3D ( 'NONE', #25, #83, #98 ) ;
#54 = COORDINATED_UNIVERSAL_TIME_OFFSET ( 5, 0, .BEHIND. ) ;
#55 = ADVANCED_FACE ( 'NONE', ( #32 ), #21, .T. ) ;
#56 = PERSON_AND_ORGANIZATION ( #164, #105 ) ;
#57 = EDGE_LOOP ( 'NONE', ( #130, #100, #5, #162 ) ) ;
#58 = PERSON_AND_ORGANIZATION_ROLE ( 'creator' ) ;
#59 = PERSON_AND_ORGANIZATION_ROLE ( 'design_owner' ) ;
#60 = COORDINATED_UNIVERSAL_TIME_OFFSET ( 5, 0, .BEHIND. ) ;
#61 = ORIENTED_EDGE ( 'NONE', *, *, #15, .F. ) ;
#62 = DATE_TIME_ROLE ( 'creation_date' ) ;
#63 = APPROVAL_STATUS ( 'not_yet_approved' ) ;
#64 = DATE_AND_TIME ( #128, #175 ) ;
#65 = CARTESIAN_POINT ( 'NONE',  ( 0.000000000000000000, 0.000000000000000000, 1.000000000000000000 ) ) ;
#66 = EDGE_LOOP ( 'NONE', ( #43, #33 ) ) ;
#67 = PRODUCT_RELATED_PRODUCT_CATEGORY ( 'detail', '', ( #88 ) ) ;
#68 = APPLICATION_CONTEXT ( 'configuration controlled 3d designs of mechanical parts and assemblies' ) ;
#69 = APPROVAL_ROLE ( '' ) ;
#70 = CYLINDRICAL_SURFACE ( 'NONE', #89, 6.250000000000000000 ) ;
#71 = DIRECTION ( 'NONE',  ( -1.000000000000000000, 0.000000000000000000, 0.000000000000000000 ) ) ;
#72 = LOCAL_TIME ( 15, 7, 28.00000000000000000, #54 ) ;
#73 = LINE ( 'NONE', #166, #22 ) ;
#74 = VERTEX_POINT ( 'NONE', #167 ) ;
#75 = DIRECTION ( 'NONE',  ( -0.000000000000000000, -0.000000000000000000, -1.000000000000000000 ) ) ;
#76 = DIRECTION ( 'NONE',  ( 0.000000000000000000, 0.000000000000000000, 1.000000000000000000 ) ) ;
#77 = AXIS2_PLACEMENT_3D ( 'NONE', #41, #152, #154 ) ;
#78 = EDGE_LOOP ( 'NONE', ( #141, #79, #111, #42 ) ) ;
#79 = ORIENTED_EDGE ( 'NONE', *, *, #118, .T. ) ;
#80 = CARTESIAN_POINT ( 'NONE',  ( 0.000000000000000000, 0.000000000000000000, 1.000000000000000000 ) ) ;
#81 = DIRECTION ( 'NONE',  ( 0.000000000000000000, 0.000000000000000000, 1.000000000000000000 ) ) ;
#82 = CALENDAR_DATE ( 2021, 2, 11 ) ;
#83 = DIRECTION ( 'NONE',  ( 0.000000000000000000, 0.000000000000000000, 1.000000000000000000 ) ) ;
#84 = AXIS2_PLACEMENT_3D ( 'NONE', #127, #81, #47 ) ;
#85 = CIRCLE ( 'NONE', #77, 6.250000000000000000 ) ;
#86 = COORDINATED_UNIVERSAL_TIME_OFFSET ( 5, 0, .BEHIND. ) ;
#87 = FACE_OUTER_BOUND ( 'NONE', #78, .T. ) ;
#88 = PRODUCT ( 'Web Model 19724_19726', 'Web Model 19724_19726', '', ( #36 ) ) ;
#89 = AXIS2_PLACEMENT_3D ( 'NONE', #80, #138, #71 ) ;
#90 = COORDINATED_UNIVERSAL_TIME_OFFSET ( 5, 0, .BEHIND. ) ;
#91 = DIRECTION ( 'NONE',  ( 1.000000000000000000, 0.000000000000000000, 0.000000000000000000 ) ) ;
#92 = AXIS2_PLACEMENT_3D ( 'NONE', #44, #7, #103 ) ;
#93 = DIRECTION ( 'NONE',  ( 1.000000000000000000, 0.000000000000000000, -0.000000000000000000 ) ) ;
#94 = PLANE ( 'NONE',  #35 ) ;
#95 = APPLICATION_CONTEXT ( 'configuration controlled 3d designs of mechanical parts and assemblies' ) ;
#96 = DIRECTION ( 'NONE',  ( 0.000000000000000000, 0.000000000000000000, 1.000000000000000000 ) ) ;
#97 = APPROVAL_STATUS ( 'not_yet_approved' ) ;
#98 = DIRECTION ( 'NONE',  ( 1.000000000000000000, 0.000000000000000000, 0.000000000000000000 ) ) ;
#99 = CC_DESIGN_APPROVAL ( #18, ( #6 ) ) ;
#100 = ORIENTED_EDGE ( 'NONE', *, *, #112, .F. ) ;
#101 = DATE_AND_TIME ( #51, #143 ) ;
#102 = AXIS2_PLACEMENT_3D ( 'NONE', #26, #173, #29 ) ;
#103 = DIRECTION ( 'NONE',  ( 1.000000000000000000, 0.000000000000000000, -0.000000000000000000 ) ) ;
#104 = CYLINDRICAL_SURFACE ( 'NONE', #102, 6.250000000000000000 ) ;
#105 = ORGANIZATION ( 'UNSPECIFIED', 'UNSPECIFIED', '' ) ;
#106 = CARTESIAN_POINT ( 'NONE',  ( 0.000000000000000000, 0.000000000000000000, 1.000000000000000000 ) ) ;
#107 = CARTESIAN_POINT ( 'NONE',  ( 6.250000000000000000, 7.654042494670957606E-16, 1.000000000000000000 ) ) ;
#108 = PERSON_AND_ORGANIZATION_ROLE ( 'design_supplier' ) ;
#109 = DIRECTION ( 'NONE',  ( 1.000000000000000000, 0.000000000000000000, 0.000000000000000000 ) ) ;
#110 = PERSON_AND_ORGANIZATION ( #164, #105 ) ;
#111 = ORIENTED_EDGE ( 'NONE', *, *, #15, .T. ) ;
#112 = EDGE_CURVE ( 'NONE', #50, #140, #134, .T. ) ;
#113 = LINE ( 'NONE', #148, #39 ) ;
#114 = CLOSED_SHELL ( 'NONE', ( #121, #149, #55, #4 ) ) ;
#115 = AXIS2_PLACEMENT_3D ( 'NONE', #106, #96, #109 ) ;
#116 = APPROVAL_DATE_TIME ( #40, #1 ) ;
#117 = CIRCLE ( 'NONE', #115, 6.250000000000000000 ) ;
#118 = EDGE_CURVE ( 'NONE', #140, #174, #113, .T. ) ;
#119 = EDGE_LOOP ( 'NONE', ( #13, #61 ) ) ;
#120 = PERSON_AND_ORGANIZATION ( #164, #105 ) ;
#121 = ADVANCED_FACE ( 'NONE', ( #87 ), #104, .T. ) ;
#122 = SECURITY_CLASSIFICATION_LEVEL ( 'unclassified' ) ;
#123 =( NAMED_UNIT ( * ) PLANE_ANGLE_UNIT ( ) SI_UNIT ( $, .RADIAN. ) );
#124 = CALENDAR_DATE ( 2021, 2, 11 ) ;
#125 = PERSON_AND_ORGANIZATION ( #164, #105 ) ;
#126 =( GEOMETRIC_REPRESENTATION_CONTEXT ( 3 ) GLOBAL_UNCERTAINTY_ASSIGNED_CONTEXT ( ( #8 ) ) GLOBAL_UNIT_ASSIGNED_CONTEXT ( ( #48, #123, #155 ) ) REPRESENTATION_CONTEXT ( 'NONE', 'WORKASPACE' ) );
#127 = CARTESIAN_POINT ( 'NONE',  ( 0.000000000000000000, 0.000000000000000000, 0.000000000000000000 ) ) ;
#128 = CALENDAR_DATE ( 2021, 2, 11 ) ;
#129 = CC_DESIGN_PERSON_AND_ORGANIZATION_ASSIGNMENT ( #125, #135, ( #6 ) ) ;
#130 = ORIENTED_EDGE ( 'NONE', *, *, #118, .F. ) ;
#131 = MANIFOLD_SOLID_BREP ( 'Boss-Extrude1', #114 ) ;
#132 = CC_DESIGN_PERSON_AND_ORGANIZATION_ASSIGNMENT ( #156, #108, ( #142 ) ) ;
#133 = CARTESIAN_POINT ( 'NONE',  ( -6.250000000000000000, 0.000000000000000000, 1.000000000000000000 ) ) ;
#134 = CIRCLE ( 'NONE', #27, 6.250000000000000000 ) ;
#135 = PERSON_AND_ORGANIZATION_ROLE ( 'creator' ) ;
#136 = PERSON_AND_ORGANIZATION ( #164, #105 ) ;
#137 = APPLICATION_PROTOCOL_DEFINITION ( 'international standard', 'config_control_design', 1994, #95 ) ;
#138 = DIRECTION ( 'NONE',  ( -0.000000000000000000, -0.000000000000000000, -1.000000000000000000 ) ) ;
#139 = APPROVAL_ROLE ( '' ) ;
#140 = VERTEX_POINT ( 'NONE', #107 ) ;
#141 = ORIENTED_EDGE ( 'NONE', *, *, #159, .F. ) ;
#142 = PRODUCT_DEFINITION_FORMATION_WITH_SPECIFIED_SOURCE ( 'ANY', '', #88, .NOT_KNOWN. ) ;
#143 = LOCAL_TIME ( 15, 7, 28.00000000000000000, #90 ) ;
#144 = PRODUCT_DEFINITION_SHAPE ( 'NONE', 'NONE',  #6 ) ;
#145 = CC_DESIGN_PERSON_AND_ORGANIZATION_ASSIGNMENT ( #136, #34, ( #170 ) ) ;
#146 = CC_DESIGN_DATE_AND_TIME_ASSIGNMENT ( #150, #62, ( #6 ) ) ;
#147 = CIRCLE ( 'NONE', #53, 6.250000000000000000 ) ;
#148 = CARTESIAN_POINT ( 'NONE',  ( 6.250000000000000000, 7.654042494670957606E-16, 1.000000000000000000 ) ) ;
#149 = ADVANCED_FACE ( 'NONE', ( #52 ), #70, .T. ) ;
#150 = DATE_AND_TIME ( #82, #72 ) ;
#151 = CC_DESIGN_PERSON_AND_ORGANIZATION_ASSIGNMENT ( #56, #59, ( #88 ) ) ;
#152 = DIRECTION ( 'NONE',  ( 0.000000000000000000, 0.000000000000000000, 1.000000000000000000 ) ) ;
#153 = COORDINATED_UNIVERSAL_TIME_OFFSET ( 5, 0, .BEHIND. ) ;
#154 = DIRECTION ( 'NONE',  ( 1.000000000000000000, 0.000000000000000000, 0.000000000000000000 ) ) ;
#155 =( NAMED_UNIT ( * ) SI_UNIT ( $, .STERADIAN. ) SOLID_ANGLE_UNIT ( ) );
#156 = PERSON_AND_ORGANIZATION ( #164, #105 ) ;
#157 = PERSON_AND_ORGANIZATION ( #164, #105 ) ;
#158 = EDGE_CURVE ( 'NONE', #74, #174, #147, .T. ) ;
#159 = EDGE_CURVE ( 'NONE', #140, #50, #117, .T. ) ;
#160 = CC_DESIGN_PERSON_AND_ORGANIZATION_ASSIGNMENT ( #120, #58, ( #142 ) ) ;
#161 = PERSON_AND_ORGANIZATION ( #164, #105 ) ;
#162 = ORIENTED_EDGE ( 'NONE', *, *, #158, .T. ) ;
#163 = CALENDAR_DATE ( 2021, 2, 11 ) ;
#164 = PERSON ( 'UNSPECIFIED', 'UNSPECIFIED', 'UNSPECIFIED', ('UNSPECIFIED'), ('UNSPECIFIED'), ('UNSPECIFIED') ) ;
#165 = CC_DESIGN_DATE_AND_TIME_ASSIGNMENT ( #101, #172, ( #170 ) ) ;
#166 = CARTESIAN_POINT ( 'NONE',  ( -6.250000000000000000, 0.000000000000000000, 1.000000000000000000 ) ) ;
#167 = CARTESIAN_POINT ( 'NONE',  ( -6.250000000000000000, 0.000000000000000000, 0.000000000000000000 ) ) ;
#168 = APPROVAL_PERSON_ORGANIZATION ( #157, #18, #139 ) ;
#169 = CARTESIAN_POINT ( 'NONE',  ( 6.250000000000000000, 7.654042494670957606E-16, 0.000000000000000000 ) ) ;
#170 = SECURITY_CLASSIFICATION ( '', '', #122 ) ;
#171 = APPROVAL_PERSON_ORGANIZATION ( #161, #1, #11 ) ;
#172 = DATE_TIME_ROLE ( 'classification_date' ) ;
#173 = DIRECTION ( 'NONE',  ( -0.000000000000000000, -0.000000000000000000, -1.000000000000000000 ) ) ;
#174 = VERTEX_POINT ( 'NONE', #169 ) ;
#175 = LOCAL_TIME ( 15, 7, 28.00000000000000000, #86 ) ;
ENDSEC;
END-ISO-10303-21;
