ISO-10303-21;
HEADER;
FILE_DESCRIPTION (( 'STEP AP203' ),
    '1' );
FILE_NAME ('Web Model 36992_13317.step',
    '2020-11-03T22:14:11',
    ( '' ),
    ( '' ),
    'SwSTEP 2.0',
    'SolidWorks 2018',
    '' );
FILE_SCHEMA (( 'CONFIG_CONTROL_DESIGN' ));
ENDSEC;

DATA;
#1 = APPROVAL_STATUS ( 'not_yet_approved' ) ;
#2 = CARTESIAN_POINT ( 'NONE',  ( -12.50000000000000000, 0.0000000000000000000, 1.000000000000000000 ) ) ;
#3 = APPLICATION_CONTEXT ( 'configuration controlled 3d designs of mechanical parts and assemblies' ) ;
#4 = ORIENTED_EDGE ( 'NONE', *, *, #169, .T. ) ;
#5 = PERSON_AND_ORGANIZATION ( #17, #143 ) ;
#6 = PERSON_AND_ORGANIZATION ( #17, #143 ) ;
#7 = CIRCLE ( 'NONE', #97, 12.50000000000000000 ) ;
#8 = FACE_OUTER_BOUND ( 'NONE', #124, .T. ) ;
#9 = AXIS2_PLACEMENT_3D ( 'NONE', #67, #153, #168 ) ;
#10 = VERTEX_POINT ( 'NONE', #25 ) ;
#11 = DIRECTION ( 'NONE',  ( 0.0000000000000000000, 0.0000000000000000000, 1.000000000000000000 ) ) ;
#12 = ORIENTED_EDGE ( 'NONE', *, *, #136, .F. ) ;
#13 = APPROVAL_DATE_TIME ( #55, #110 ) ;
#14 = PRODUCT ( 'Web Model 36992_13317', 'Web Model 36992_13317', '', ( #31 ) ) ;
#15 = ADVANCED_FACE ( 'NONE', ( #121 ), #36, .T. ) ;
#16 = APPLICATION_PROTOCOL_DEFINITION ( 'international standard', 'config_control_design', 1994, #106 ) ;
#17 = PERSON ( 'UNSPECIFIED', 'UNSPECIFIED', 'UNSPECIFIED', ('UNSPECIFIED'), ('UNSPECIFIED'), ('UNSPECIFIED') ) ;
#18 = CARTESIAN_POINT ( 'NONE',  ( 0.0000000000000000000, 0.0000000000000000000, -1.000000000000000000 ) ) ;
#19 = SECURITY_CLASSIFICATION_LEVEL ( 'unclassified' ) ;
#20 = APPROVAL_PERSON_ORGANIZATION ( #99, #49, #61 ) ;
#21 = CALENDAR_DATE ( 2020, 3, 11 ) ;
#22 = CC_DESIGN_PERSON_AND_ORGANIZATION_ASSIGNMENT ( #137, #130, ( #46 ) ) ;
#23 = ORIENTED_EDGE ( 'NONE', *, *, #132, .T. ) ;
#24 = CC_DESIGN_DATE_AND_TIME_ASSIGNMENT ( #170, #141, ( #46 ) ) ;
#25 = CARTESIAN_POINT ( 'NONE',  ( 12.50000000000000000, 1.530808498934191521E-15, 1.000000000000000000 ) ) ;
#26 = CC_DESIGN_APPROVAL ( #49, ( #77 ) ) ;
#27 = DIRECTION ( 'NONE',  ( 0.0000000000000000000, 0.0000000000000000000, 1.000000000000000000 ) ) ;
#28 = PERSON_AND_ORGANIZATION_ROLE ( 'design_owner' ) ;
#29 = AXIS2_PLACEMENT_3D ( 'NONE', #58, #11, #140 ) ;
#30 = APPROVAL_STATUS ( 'not_yet_approved' ) ;
#31 = MECHANICAL_CONTEXT ( 'NONE', #106, 'mechanical' ) ;
#32 = APPROVAL_ROLE ( '' ) ;
#33 = ORIENTED_EDGE ( 'NONE', *, *, #132, .F. ) ;
#34 = PRODUCT_DEFINITION_FORMATION_WITH_SPECIFIED_SOURCE ( 'ANY', '', #14, .NOT_KNOWN. ) ;
#35 = CC_DESIGN_APPROVAL ( #161, ( #46 ) ) ;
#36 = CYLINDRICAL_SURFACE ( 'NONE', #52, 12.50000000000000000 ) ;
#37 = LOCAL_TIME ( 17, 14, 11.00000000000000000, #102 ) ;
#38 = EDGE_CURVE ( 'NONE', #79, #51, #63, .T. ) ;
#39 = CARTESIAN_POINT ( 'NONE',  ( 0.0000000000000000000, 0.0000000000000000000, 1.000000000000000000 ) ) ;
#40 = ORIENTED_EDGE ( 'NONE', *, *, #169, .F. ) ;
#41 = ADVANCED_FACE ( 'NONE', ( #42 ), #164, .T. ) ;
#42 = FACE_OUTER_BOUND ( 'NONE', #87, .T. ) ;
#43 = DATE_TIME_ROLE ( 'creation_date' ) ;
#44 = APPLICATION_PROTOCOL_DEFINITION ( 'international standard', 'config_control_design', 1994, #3 ) ;
#45 = CIRCLE ( 'NONE', #147, 12.50000000000000000 ) ;
#46 = SECURITY_CLASSIFICATION ( '', '', #19 ) ;
#47 = DIRECTION ( 'NONE',  ( 0.0000000000000000000, 0.0000000000000000000, 1.000000000000000000 ) ) ;
#48 = CALENDAR_DATE ( 2020, 3, 11 ) ;
#49 = APPROVAL ( #30, 'UNSPECIFIED' ) ;
#50 = CIRCLE ( 'NONE', #94, 12.50000000000000000 ) ;
#51 = VERTEX_POINT ( 'NONE', #90 ) ;
#52 = AXIS2_PLACEMENT_3D ( 'NONE', #39, #172, #116 ) ;
#53 = PERSON_AND_ORGANIZATION ( #17, #143 ) ;
#54 = DIRECTION ( 'NONE',  ( -1.000000000000000000, 0.0000000000000000000, 0.0000000000000000000 ) ) ;
#55 = DATE_AND_TIME ( #48, #93 ) ;
#56 = DIRECTION ( 'NONE',  ( 0.0000000000000000000, 0.0000000000000000000, 1.000000000000000000 ) ) ;
#57 = CC_DESIGN_PERSON_AND_ORGANIZATION_ASSIGNMENT ( #53, #108, ( #77 ) ) ;
#58 = CARTESIAN_POINT ( 'NONE',  ( 0.0000000000000000000, 0.0000000000000000000, 1.000000000000000000 ) ) ;
#59 = CARTESIAN_POINT ( 'NONE',  ( 12.50000000000000000, 1.530808498934191521E-15, 1.000000000000000000 ) ) ;
#60 = PERSON_AND_ORGANIZATION ( #17, #143 ) ;
#61 = APPROVAL_ROLE ( '' ) ;
#62 = ADVANCED_FACE ( 'NONE', ( #156 ), #119, .T. ) ;
#63 = CIRCLE ( 'NONE', #105, 12.50000000000000000 ) ;
#64 = DATE_AND_TIME ( #160, #159 ) ;
#65 = CARTESIAN_POINT ( 'NONE',  ( 0.0000000000000000000, 0.0000000000000000000, -1.000000000000000000 ) ) ;
#66 = CLOSED_SHELL ( 'NONE', ( #15, #41, #62, #155 ) ) ;
#67 = CARTESIAN_POINT ( 'NONE',  ( 0.0000000000000000000, 0.0000000000000000000, 0.0000000000000000000 ) ) ;
#68 = EDGE_CURVE ( 'NONE', #109, #51, #145, .T. ) ;
#69 = CARTESIAN_POINT ( 'NONE',  ( 0.0000000000000000000, 0.0000000000000000000, 1.000000000000000000 ) ) ;
#70 = ORIENTED_EDGE ( 'NONE', *, *, #38, .T. ) ;
#71 = ORIENTED_EDGE ( 'NONE', *, *, #68, .T. ) ;
#72 = DATE_AND_TIME ( #100, #125 ) ;
#73 = APPROVAL_STATUS ( 'not_yet_approved' ) ;
#74 = DIRECTION ( 'NONE',  ( 1.000000000000000000, 0.0000000000000000000, 0.0000000000000000000 ) ) ;
#75 = DIRECTION ( 'NONE',  ( -0.0000000000000000000, -0.0000000000000000000, -1.000000000000000000 ) ) ;
#76 = PERSON_AND_ORGANIZATION_ROLE ( 'creator' ) ;
#77 = PRODUCT_DEFINITION ( 'UNKNOWN', '', #34, #146 ) ;
#78 = CARTESIAN_POINT ( 'NONE',  ( 0.0000000000000000000, 0.0000000000000000000, 1.000000000000000000 ) ) ;
#79 = VERTEX_POINT ( 'NONE', #126 ) ;
#80 = CALENDAR_DATE ( 2020, 3, 11 ) ;
#81 = VECTOR ( 'NONE', #75, 1000.000000000000000 ) ;
#82 = CARTESIAN_POINT ( 'NONE',  ( 0.0000000000000000000, 0.0000000000000000000, 1.000000000000000000 ) ) ;
#83 = ORIENTED_EDGE ( 'NONE', *, *, #152, .F. ) ;
#84 = CARTESIAN_POINT ( 'NONE',  ( 0.0000000000000000000, 0.0000000000000000000, -1.000000000000000000 ) ) ;
#85 = LINE ( 'NONE', #59, #81 ) ;
#86 = AXIS2_PLACEMENT_3D ( 'NONE', #65, #92, #111 ) ;
#87 = EDGE_LOOP ( 'NONE', ( #12, #83, #71, #23 ) ) ;
#88 =( NAMED_UNIT ( * ) PLANE_ANGLE_UNIT ( ) SI_UNIT ( $, .RADIAN. ) );
#89 = AXIS2_PLACEMENT_3D ( 'NONE', #69, #163, #54 ) ;
#90 = CARTESIAN_POINT ( 'NONE',  ( -12.50000000000000000, 0.0000000000000000000, -1.000000000000000000 ) ) ;
#91 =( NAMED_UNIT ( * ) SI_UNIT ( $, .STERADIAN. ) SOLID_ANGLE_UNIT ( ) );
#92 = DIRECTION ( 'NONE',  ( 0.0000000000000000000, 0.0000000000000000000, 1.000000000000000000 ) ) ;
#93 = LOCAL_TIME ( 17, 14, 11.00000000000000000, #167 ) ;
#94 = AXIS2_PLACEMENT_3D ( 'NONE', #18, #56, #74 ) ;
#95 = APPROVAL_PERSON_ORGANIZATION ( #60, #110, #120 ) ;
#96 = ADVANCED_BREP_SHAPE_REPRESENTATION ( 'Web Model 36992_13317', ( #149, #9 ), #114 ) ;
#97 = AXIS2_PLACEMENT_3D ( 'NONE', #82, #98, #104 ) ;
#98 = DIRECTION ( 'NONE',  ( 0.0000000000000000000, 0.0000000000000000000, 1.000000000000000000 ) ) ;
#99 = PERSON_AND_ORGANIZATION ( #17, #143 ) ;
#100 = CALENDAR_DATE ( 2020, 3, 11 ) ;
#101 = CC_DESIGN_APPROVAL ( #110, ( #34 ) ) ;
#102 = COORDINATED_UNIVERSAL_TIME_OFFSET ( 5, 0, .BEHIND. ) ;
#103 = ORIENTED_EDGE ( 'NONE', *, *, #152, .T. ) ;
#104 = DIRECTION ( 'NONE',  ( 1.000000000000000000, 0.0000000000000000000, 0.0000000000000000000 ) ) ;
#105 = AXIS2_PLACEMENT_3D ( 'NONE', #84, #27, #127 ) ;
#106 = APPLICATION_CONTEXT ( 'configuration controlled 3d designs of mechanical parts and assemblies' ) ;
#107 = CARTESIAN_POINT ( 'NONE',  ( -12.50000000000000000, 0.0000000000000000000, 1.000000000000000000 ) ) ;
#108 = PERSON_AND_ORGANIZATION_ROLE ( 'creator' ) ;
#109 = VERTEX_POINT ( 'NONE', #107 ) ;
#110 = APPROVAL ( #1, 'UNSPECIFIED' ) ;
#111 = DIRECTION ( 'NONE',  ( 1.000000000000000000, 0.0000000000000000000, -0.0000000000000000000 ) ) ;
#112 = LOCAL_TIME ( 17, 14, 11.00000000000000000, #134 ) ;
#113 = PRODUCT_RELATED_PRODUCT_CATEGORY ( 'detail', '', ( #14 ) ) ;
#114 =( GEOMETRIC_REPRESENTATION_CONTEXT ( 3 ) GLOBAL_UNCERTAINTY_ASSIGNED_CONTEXT ( ( #138 ) ) GLOBAL_UNIT_ASSIGNED_CONTEXT ( ( #118, #88, #91 ) ) REPRESENTATION_CONTEXT ( 'NONE', 'WORKASPACE' ) );
#115 = APPROVAL_PERSON_ORGANIZATION ( #166, #161, #32 ) ;
#116 = DIRECTION ( 'NONE',  ( -1.000000000000000000, 0.0000000000000000000, 0.0000000000000000000 ) ) ;
#117 = ORIENTED_EDGE ( 'NONE', *, *, #136, .T. ) ;
#118 =( LENGTH_UNIT ( ) NAMED_UNIT ( * ) SI_UNIT ( .MILLI., .METRE. ) );
#119 = PLANE ( 'NONE',  #29 ) ;
#120 = APPROVAL_ROLE ( '' ) ;
#121 = FACE_OUTER_BOUND ( 'NONE', #148, .T. ) ;
#122 = CC_DESIGN_DATE_AND_TIME_ASSIGNMENT ( #72, #43, ( #77 ) ) ;
#123 = COORDINATED_UNIVERSAL_TIME_OFFSET ( 5, 0, .BEHIND. ) ;
#124 = EDGE_LOOP ( 'NONE', ( #33, #135 ) ) ;
#125 = LOCAL_TIME ( 17, 14, 11.00000000000000000, #123 ) ;
#126 = CARTESIAN_POINT ( 'NONE',  ( 12.50000000000000000, 1.530808498934191521E-15, -1.000000000000000000 ) ) ;
#127 = DIRECTION ( 'NONE',  ( 1.000000000000000000, 0.0000000000000000000, 0.0000000000000000000 ) ) ;
#128 = APPROVAL_DATE_TIME ( #64, #49 ) ;
#129 = CC_DESIGN_PERSON_AND_ORGANIZATION_ASSIGNMENT ( #6, #131, ( #34 ) ) ;
#130 = PERSON_AND_ORGANIZATION_ROLE ( 'classification_officer' ) ;
#131 = PERSON_AND_ORGANIZATION_ROLE ( 'design_supplier' ) ;
#132 = EDGE_CURVE ( 'NONE', #51, #79, #50, .T. ) ;
#133 = EDGE_LOOP ( 'NONE', ( #103, #4 ) ) ;
#134 = COORDINATED_UNIVERSAL_TIME_OFFSET ( 5, 0, .BEHIND. ) ;
#135 = ORIENTED_EDGE ( 'NONE', *, *, #38, .F. ) ;
#136 = EDGE_CURVE ( 'NONE', #10, #79, #85, .T. ) ;
#137 = PERSON_AND_ORGANIZATION ( #17, #143 ) ;
#138 = UNCERTAINTY_MEASURE_WITH_UNIT (LENGTH_MEASURE( 1.000000000000000082E-05 ), #118, 'distance_accuracy_value', 'NONE');
#139 = ORIENTED_EDGE ( 'NONE', *, *, #68, .F. ) ;
#140 = DIRECTION ( 'NONE',  ( 1.000000000000000000, 0.0000000000000000000, -0.0000000000000000000 ) ) ;
#141 = DATE_TIME_ROLE ( 'classification_date' ) ;
#142 = PLANE ( 'NONE',  #86 ) ;
#143 = ORGANIZATION ( 'UNSPECIFIED', 'UNSPECIFIED', '' ) ;
#144 = DIRECTION ( 'NONE',  ( 1.000000000000000000, 0.0000000000000000000, 0.0000000000000000000 ) ) ;
#145 = LINE ( 'NONE', #2, #154 ) ;
#146 = DESIGN_CONTEXT ( 'detailed design', #3, 'design' ) ;
#147 = AXIS2_PLACEMENT_3D ( 'NONE', #78, #47, #144 ) ;
#148 = EDGE_LOOP ( 'NONE', ( #40, #117, #70, #139 ) ) ;
#149 = MANIFOLD_SOLID_BREP ( 'Boss-Extrude1', #66 ) ;
#150 = DIRECTION ( 'NONE',  ( -0.0000000000000000000, -0.0000000000000000000, -1.000000000000000000 ) ) ;
#151 = COORDINATED_UNIVERSAL_TIME_OFFSET ( 5, 0, .BEHIND. ) ;
#152 = EDGE_CURVE ( 'NONE', #109, #10, #45, .T. ) ;
#153 = DIRECTION ( 'NONE',  ( 0.0000000000000000000, 0.0000000000000000000, 1.000000000000000000 ) ) ;
#154 = VECTOR ( 'NONE', #150, 1000.000000000000000 ) ;
#155 = ADVANCED_FACE ( 'NONE', ( #8 ), #142, .F. ) ;
#156 = FACE_OUTER_BOUND ( 'NONE', #133, .T. ) ;
#157 = PERSON_AND_ORGANIZATION ( #17, #143 ) ;
#158 = DATE_AND_TIME ( #21, #37 ) ;
#159 = LOCAL_TIME ( 17, 14, 11.00000000000000000, #151 ) ;
#160 = CALENDAR_DATE ( 2020, 3, 11 ) ;
#161 = APPROVAL ( #73, 'UNSPECIFIED' ) ;
#162 = APPROVAL_DATE_TIME ( #158, #161 ) ;
#163 = DIRECTION ( 'NONE',  ( -0.0000000000000000000, -0.0000000000000000000, -1.000000000000000000 ) ) ;
#164 = CYLINDRICAL_SURFACE ( 'NONE', #89, 12.50000000000000000 ) ;
#165 = CC_DESIGN_PERSON_AND_ORGANIZATION_ASSIGNMENT ( #5, #28, ( #14 ) ) ;
#166 = PERSON_AND_ORGANIZATION ( #17, #143 ) ;
#167 = COORDINATED_UNIVERSAL_TIME_OFFSET ( 5, 0, .BEHIND. ) ;
#168 = DIRECTION ( 'NONE',  ( 1.000000000000000000, 0.0000000000000000000, 0.0000000000000000000 ) ) ;
#169 = EDGE_CURVE ( 'NONE', #10, #109, #7, .T. ) ;
#170 = DATE_AND_TIME ( #80, #112 ) ;
#171 = CC_DESIGN_PERSON_AND_ORGANIZATION_ASSIGNMENT ( #157, #76, ( #34 ) ) ;
#172 = DIRECTION ( 'NONE',  ( -0.0000000000000000000, -0.0000000000000000000, -1.000000000000000000 ) ) ;
#173 = CC_DESIGN_SECURITY_CLASSIFICATION ( #46, ( #34 ) ) ;
#174 = PRODUCT_DEFINITION_SHAPE ( 'NONE', 'NONE',  #77 ) ;
#175 = SHAPE_DEFINITION_REPRESENTATION ( #174, #96 ) ;
ENDSEC;
END-ISO-10303-21;
