ISO-10303-21;
HEADER;
FILE_DESCRIPTION (( 'STEP AP203' ),
    '1' );
FILE_NAME ('Web Model 11877_13337.step',
    '2020-11-04T13:43:03',
    ( '' ),
    ( '' ),
    'SwSTEP 2.0',
    'SolidWorks 2018',
    '' );
FILE_SCHEMA (( 'CONFIG_CONTROL_DESIGN' ));
ENDSEC;

DATA;
#1 = CIRCLE ( 'NONE', #274, 12.50000000000000000 ) ;
#2 = DIRECTION ( 'NONE',  ( 0.0000000000000000000, 0.0000000000000000000, -1.000000000000000000 ) ) ;
#3 = APPROVAL_DATE_TIME ( #108, #85 ) ;
#4 = AXIS2_PLACEMENT_3D ( 'NONE', #86, #88, #39 ) ;
#5 = CALENDAR_DATE ( 2020, 4, 11 ) ;
#6 = ADVANCED_FACE ( 'NONE', ( #125 ), #136, .T. ) ;
#7 = FACE_OUTER_BOUND ( 'NONE', #146, .T. ) ;
#8 = EDGE_CURVE ( 'NONE', #150, #194, #225, .T. ) ;
#9 = CYLINDRICAL_SURFACE ( 'NONE', #72, 12.50000000000000000 ) ;
#10 = CARTESIAN_POINT ( 'NONE',  ( 0.9500000000000072831, 0.0000000000000000000, 12.50000000000000000 ) ) ;
#11 = FACE_OUTER_BOUND ( 'NONE', #42, .T. ) ;
#12 = DIRECTION ( 'NONE',  ( 0.7071067811865597852, 0.0000000000000000000, -0.7071067811865352493 ) ) ;
#13 = DIRECTION ( 'NONE',  ( 0.0000000000000000000, 0.0000000000000000000, -1.000000000000000000 ) ) ;
#14 = DATE_AND_TIME ( #253, #220 ) ;
#15 = EDGE_CURVE ( 'NONE', #194, #150, #100, .T. ) ;
#16 = DIRECTION ( 'NONE',  ( 1.000000000000000000, 0.0000000000000000000, 0.0000000000000000000 ) ) ;
#17 = LINE ( 'NONE', #161, #120 ) ;
#18 = APPLICATION_PROTOCOL_DEFINITION ( 'international standard', 'config_control_design', 1994, #104 ) ;
#19 = DIRECTION ( 'NONE',  ( -1.000000000000000000, -0.0000000000000000000, -0.0000000000000000000 ) ) ;
#20 = UNCERTAINTY_MEASURE_WITH_UNIT (LENGTH_MEASURE( 1.000000000000000082E-05 ), #251, 'distance_accuracy_value', 'NONE');
#21 = DIRECTION ( 'NONE',  ( -0.7071067811865107133, 8.659560562355383988E-17, -0.7071067811865843211 ) ) ;
#22 = SHAPE_DEFINITION_REPRESENTATION ( #254, #219 ) ;
#23 = CARTESIAN_POINT ( 'NONE',  ( 1.000000000000000000, 1.527746881936323379E-15, -12.45000000000000284 ) ) ;
#24 = PERSON_AND_ORGANIZATION_ROLE ( 'design_owner' ) ;
#25 = PERSON_AND_ORGANIZATION_ROLE ( 'classification_officer' ) ;
#26 = AXIS2_PLACEMENT_3D ( 'NONE', #206, #265, #165 ) ;
#27 = LINE ( 'NONE', #144, #230 ) ;
#28 = ADVANCED_FACE ( 'NONE', ( #184 ), #60, .T. ) ;
#29 = ADVANCED_FACE ( 'NONE', ( #177 ), #174, .T. ) ;
#30 = ORIENTED_EDGE ( 'NONE', *, *, #58, .T. ) ;
#31 = PRODUCT_RELATED_PRODUCT_CATEGORY ( 'detail', '', ( #34 ) ) ;
#32 = DIRECTION ( 'NONE',  ( 0.0000000000000000000, 0.0000000000000000000, -1.000000000000000000 ) ) ;
#33 = COORDINATED_UNIVERSAL_TIME_OFFSET ( 5, 0, .BEHIND. ) ;
#34 = PRODUCT ( 'Web Model 11877_13337', 'Web Model 11877_13337', '', ( #237 ) ) ;
#35 = VERTEX_POINT ( 'NONE', #10 ) ;
#36 = COORDINATED_UNIVERSAL_TIME_OFFSET ( 5, 0, .BEHIND. ) ;
#37 = ORIENTED_EDGE ( 'NONE', *, *, #229, .T. ) ;
#38 = CALENDAR_DATE ( 2020, 4, 11 ) ;
#39 = DIRECTION ( 'NONE',  ( 1.000000000000000000, 0.0000000000000000000, 0.0000000000000000000 ) ) ;
#40 = ORIENTED_EDGE ( 'NONE', *, *, #193, .T. ) ;
#41 = DIRECTION ( 'NONE',  ( 0.0000000000000000000, 0.0000000000000000000, -1.000000000000000000 ) ) ;
#42 = EDGE_LOOP ( 'NONE', ( #249, #270, #30, #93 ) ) ;
#43 = DIRECTION ( 'NONE',  ( 0.0000000000000000000, 0.0000000000000000000, -1.000000000000000000 ) ) ;
#44 = PERSON_AND_ORGANIZATION ( #77, #242 ) ;
#45 = DIRECTION ( 'NONE',  ( 1.000000000000000000, -0.0000000000000000000, -0.0000000000000000000 ) ) ;
#46 = AXIS2_PLACEMENT_3D ( 'NONE', #56, #132, #13 ) ;
#47 = VERTEX_POINT ( 'NONE', #244 ) ;
#48 = APPROVAL_ROLE ( '' ) ;
#49 = ORIENTED_EDGE ( 'NONE', *, *, #135, .T. ) ;
#50 = CIRCLE ( 'NONE', #71, 12.50000000000000000 ) ;
#51 = PRODUCT_DEFINITION ( 'UNKNOWN', '', #145, #79 ) ;
#52 = EDGE_LOOP ( 'NONE', ( #67, #99, #263, #222 ) ) ;
#53 = VECTOR ( 'NONE', #12, 1000.000000000000000 ) ;
#54 = CARTESIAN_POINT ( 'NONE',  ( 0.9500000000000072831, 0.0000000000000000000, 0.0000000000000000000 ) ) ;
#55 = PERSON_AND_ORGANIZATION ( #77, #242 ) ;
#56 = CARTESIAN_POINT ( 'NONE',  ( -0.9499999999999968470, 0.0000000000000000000, 0.0000000000000000000 ) ) ;
#57 = DATE_AND_TIME ( #5, #116 ) ;
#58 = EDGE_CURVE ( 'NONE', #224, #204, #113, .T. ) ;
#59 = AXIS2_PLACEMENT_3D ( 'NONE', #101, #127, #245 ) ;
#60 = CYLINDRICAL_SURFACE ( 'NONE', #26, 12.50000000000000000 ) ;
#61 = DIRECTION ( 'NONE',  ( 0.0000000000000000000, 0.0000000000000000000, -1.000000000000000000 ) ) ;
#62 = CARTESIAN_POINT ( 'NONE',  ( -1.000000000000000000, 0.0000000000000000000, 0.0000000000000000000 ) ) ;
#63 =( NAMED_UNIT ( * ) SI_UNIT ( $, .STERADIAN. ) SOLID_ANGLE_UNIT ( ) );
#64 = CC_DESIGN_PERSON_AND_ORGANIZATION_ASSIGNMENT ( #83, #221, ( #51 ) ) ;
#65 = ORIENTED_EDGE ( 'NONE', *, *, #180, .T. ) ;
#66 = CARTESIAN_POINT ( 'NONE',  ( -1.000000000000000000, 0.0000000000000000000, 0.0000000000000000000 ) ) ;
#67 = ORIENTED_EDGE ( 'NONE', *, *, #8, .F. ) ;
#68 = DATE_TIME_ROLE ( 'classification_date' ) ;
#69 = EDGE_CURVE ( 'NONE', #35, #134, #1, .T. ) ;
#70 =( GEOMETRIC_REPRESENTATION_CONTEXT ( 3 ) GLOBAL_UNCERTAINTY_ASSIGNED_CONTEXT ( ( #20 ) ) GLOBAL_UNIT_ASSIGNED_CONTEXT ( ( #251, #123, #63 ) ) REPRESENTATION_CONTEXT ( 'NONE', 'WORKASPACE' ) );
#71 = AXIS2_PLACEMENT_3D ( 'NONE', #255, #214, #2 ) ;
#72 = AXIS2_PLACEMENT_3D ( 'NONE', #187, #19, #139 ) ;
#73 = FACE_OUTER_BOUND ( 'NONE', #52, .T. ) ;
#74 = CARTESIAN_POINT ( 'NONE',  ( 1.000000000000000000, 0.0000000000000000000, 0.0000000000000000000 ) ) ;
#75 = CARTESIAN_POINT ( 'NONE',  ( -0.9499999999999968470, 0.0000000000000000000, 0.0000000000000000000 ) ) ;
#76 = DATE_AND_TIME ( #192, #247 ) ;
#77 = PERSON ( 'UNSPECIFIED', 'UNSPECIFIED', 'UNSPECIFIED', ('UNSPECIFIED'), ('UNSPECIFIED'), ('UNSPECIFIED') ) ;
#78 = DIRECTION ( 'NONE',  ( -1.000000000000000000, 0.0000000000000000000, 0.0000000000000000000 ) ) ;
#79 = DESIGN_CONTEXT ( 'detailed design', #114, 'design' ) ;
#80 = COORDINATED_UNIVERSAL_TIME_OFFSET ( 5, 0, .BEHIND. ) ;
#81 = FACE_OUTER_BOUND ( 'NONE', #155, .T. ) ;
#82 = CARTESIAN_POINT ( 'NONE',  ( 1.000000000000000000, 0.0000000000000000000, 0.0000000000000000000 ) ) ;
#83 = PERSON_AND_ORGANIZATION ( #77, #242 ) ;
#84 = DIRECTION ( 'NONE',  ( -1.000000000000000000, -0.0000000000000000000, -0.0000000000000000000 ) ) ;
#85 = APPROVAL ( #171, 'UNSPECIFIED' ) ;
#86 = CARTESIAN_POINT ( 'NONE',  ( 0.0000000000000000000, 0.0000000000000000000, 0.0000000000000000000 ) ) ;
#87 = DIRECTION ( 'NONE',  ( 1.000000000000000000, 0.0000000000000000000, 0.0000000000000000000 ) ) ;
#88 = DIRECTION ( 'NONE',  ( 0.0000000000000000000, 0.0000000000000000000, 1.000000000000000000 ) ) ;
#89 = CC_DESIGN_APPROVAL ( #131, ( #145 ) ) ;
#90 = AXIS2_PLACEMENT_3D ( 'NONE', #66, #106, #143 ) ;
#91 = APPROVAL_DATE_TIME ( #257, #138 ) ;
#92 = DATE_TIME_ROLE ( 'creation_date' ) ;
#93 = ORIENTED_EDGE ( 'NONE', *, *, #124, .F. ) ;
#94 = ADVANCED_FACE ( 'NONE', ( #7 ), #235, .T. ) ;
#95 = PERSON_AND_ORGANIZATION ( #77, #242 ) ;
#96 = EDGE_LOOP ( 'NONE', ( #271, #37, #246, #102 ) ) ;
#97 = COORDINATED_UNIVERSAL_TIME_OFFSET ( 5, 0, .BEHIND. ) ;
#98 = DIRECTION ( 'NONE',  ( 0.0000000000000000000, 0.0000000000000000000, -1.000000000000000000 ) ) ;
#99 = ORIENTED_EDGE ( 'NONE', *, *, #195, .T. ) ;
#100 = CIRCLE ( 'NONE', #103, 12.45000000000000284 ) ;
#101 = CARTESIAN_POINT ( 'NONE',  ( 1.000000000000000000, 0.0000000000000000000, 0.0000000000000000000 ) ) ;
#102 = ORIENTED_EDGE ( 'NONE', *, *, #124, .T. ) ;
#103 = AXIS2_PLACEMENT_3D ( 'NONE', #202, #200, #160 ) ;
#104 = APPLICATION_CONTEXT ( 'configuration controlled 3d designs of mechanical parts and assemblies' ) ;
#105 = ORIENTED_EDGE ( 'NONE', *, *, #58, .F. ) ;
#106 = DIRECTION ( 'NONE',  ( -1.000000000000000000, -0.0000000000000000000, -0.0000000000000000000 ) ) ;
#107 = CONICAL_SURFACE ( 'NONE', #223, 12.45000000000000284, 0.7853981633975003485 ) ;
#108 = DATE_AND_TIME ( #115, #212 ) ;
#109 = CARTESIAN_POINT ( 'NONE',  ( 1.000000000000000000, 1.524685264938455237E-15, -12.45000000000000284 ) ) ;
#110 = SECURITY_CLASSIFICATION ( '', '', #191 ) ;
#111 = ORIENTED_EDGE ( 'NONE', *, *, #250, .T. ) ;
#112 = APPROVAL_ROLE ( '' ) ;
#113 = LINE ( 'NONE', #264, #53 ) ;
#114 = APPLICATION_CONTEXT ( 'configuration controlled 3d designs of mechanical parts and assemblies' ) ;
#115 = CALENDAR_DATE ( 2020, 4, 11 ) ;
#116 = LOCAL_TIME ( 8, 43, 3.000000000000000000, #122 ) ;
#117 = DIRECTION ( 'NONE',  ( 0.0000000000000000000, 0.0000000000000000000, -1.000000000000000000 ) ) ;
#118 = CC_DESIGN_DATE_AND_TIME_ASSIGNMENT ( #76, #92, ( #51 ) ) ;
#119 = CIRCLE ( 'NONE', #181, 12.50000000000000000 ) ;
#120 = VECTOR ( 'NONE', #176, 1000.000000000000000 ) ;
#121 = DIRECTION ( 'NONE',  ( 0.0000000000000000000, 0.0000000000000000000, -1.000000000000000000 ) ) ;
#122 = COORDINATED_UNIVERSAL_TIME_OFFSET ( 5, 0, .BEHIND. ) ;
#123 =( NAMED_UNIT ( * ) PLANE_ANGLE_UNIT ( ) SI_UNIT ( $, .RADIAN. ) );
#124 = EDGE_CURVE ( 'NONE', #158, #204, #167, .T. ) ;
#125 = FACE_OUTER_BOUND ( 'NONE', #130, .T. ) ;
#126 = PERSON_AND_ORGANIZATION_ROLE ( 'creator' ) ;
#127 = DIRECTION ( 'NONE',  ( -1.000000000000000000, 0.0000000000000000000, 0.0000000000000000000 ) ) ;
#128 = PERSON_AND_ORGANIZATION ( #77, #242 ) ;
#129 = EDGE_CURVE ( 'NONE', #194, #35, #17, .T. ) ;
#130 = EDGE_LOOP ( 'NONE', ( #260, #199 ) ) ;
#131 = APPROVAL ( #152, 'UNSPECIFIED' ) ;
#132 = DIRECTION ( 'NONE',  ( 1.000000000000000000, -0.0000000000000000000, -0.0000000000000000000 ) ) ;
#133 = PERSON_AND_ORGANIZATION ( #77, #242 ) ;
#134 = VERTEX_POINT ( 'NONE', #156 ) ;
#135 = EDGE_CURVE ( 'NONE', #204, #158, #119, .T. ) ;
#136 = PLANE ( 'NONE',  #227 ) ;
#137 = PERSON_AND_ORGANIZATION ( #77, #242 ) ;
#138 = APPROVAL ( #258, 'UNSPECIFIED' ) ;
#139 = DIRECTION ( 'NONE',  ( 0.0000000000000000000, 0.0000000000000000000, 1.000000000000000000 ) ) ;
#140 = CLOSED_SHELL ( 'NONE', ( #29, #153, #234, #28, #6, #147, #94, #197 ) ) ;
#141 = DIRECTION ( 'NONE',  ( 0.7071067811865597852, 8.659560562354782482E-17, 0.7071067811865352493 ) ) ;
#142 = APPROVAL_DATE_TIME ( #57, #131 ) ;
#143 = DIRECTION ( 'NONE',  ( 0.0000000000000000000, 0.0000000000000000000, -1.000000000000000000 ) ) ;
#144 = CARTESIAN_POINT ( 'NONE',  ( -0.9499999999999968470, 1.530808498934191521E-15, 12.50000000000000000 ) ) ;
#145 = PRODUCT_DEFINITION_FORMATION_WITH_SPECIFIED_SOURCE ( 'ANY', '', #34, .NOT_KNOWN. ) ;
#146 = EDGE_LOOP ( 'NONE', ( #215, #198, #256, #216 ) ) ;
#147 = ADVANCED_FACE ( 'NONE', ( #81 ), #179, .F. ) ;
#148 = APPROVAL_PERSON_ORGANIZATION ( #205, #138, #112 ) ;
#149 = PERSON_AND_ORGANIZATION_ROLE ( 'design_supplier' ) ;
#150 = VERTEX_POINT ( 'NONE', #23 ) ;
#151 = FACE_OUTER_BOUND ( 'NONE', #154, .T. ) ;
#152 = APPROVAL_STATUS ( 'not_yet_approved' ) ;
#153 = ADVANCED_FACE ( 'NONE', ( #73 ), #107, .T. ) ;
#154 = EDGE_LOOP ( 'NONE', ( #190, #111, #49, #273 ) ) ;
#155 = EDGE_LOOP ( 'NONE', ( #65, #40 ) ) ;
#156 = CARTESIAN_POINT ( 'NONE',  ( 0.9500000000000072831, 1.530808498934191521E-15, -12.50000000000000000 ) ) ;
#157 = CC_DESIGN_DATE_AND_TIME_ASSIGNMENT ( #14, #68, ( #110 ) ) ;
#158 = VERTEX_POINT ( 'NONE', #208 ) ;
#159 = VECTOR ( 'NONE', #21, 1000.000000000000000 ) ;
#160 = DIRECTION ( 'NONE',  ( 0.0000000000000000000, 0.0000000000000000000, -1.000000000000000000 ) ) ;
#161 = CARTESIAN_POINT ( 'NONE',  ( 1.000000000000000000, 0.0000000000000000000, 12.45000000000000284 ) ) ;
#162 = CC_DESIGN_APPROVAL ( #138, ( #51 ) ) ;
#163 = ORIENTED_EDGE ( 'NONE', *, *, #241, .T. ) ;
#164 = VECTOR ( 'NONE', #186, 1000.000000000000000 ) ;
#165 = DIRECTION ( 'NONE',  ( 0.0000000000000000000, 0.0000000000000000000, 1.000000000000000000 ) ) ;
#166 = DIRECTION ( 'NONE',  ( 0.0000000000000000000, 0.0000000000000000000, 1.000000000000000000 ) ) ;
#167 = CIRCLE ( 'NONE', #46, 12.50000000000000000 ) ;
#168 = CARTESIAN_POINT ( 'NONE',  ( 1.000000000000000000, 1.530808498934191521E-15, -12.50000000000000000 ) ) ;
#169 = DIRECTION ( 'NONE',  ( 1.000000000000000000, -0.0000000000000000000, -0.0000000000000000000 ) ) ;
#170 = CARTESIAN_POINT ( 'NONE',  ( -0.9499999999999968470, 0.0000000000000000000, 0.0000000000000000000 ) ) ;
#171 = APPROVAL_STATUS ( 'not_yet_approved' ) ;
#172 = CC_DESIGN_SECURITY_CLASSIFICATION ( #110, ( #145 ) ) ;
#173 = AXIS2_PLACEMENT_3D ( 'NONE', #75, #239, #98 ) ;
#174 = CONICAL_SURFACE ( 'NONE', #173, 12.50000000000000000, 0.7853981633974309595 ) ;
#175 = APPROVAL_ROLE ( '' ) ;
#176 = DIRECTION ( 'NONE',  ( -0.7071067811865107133, 0.0000000000000000000, 0.7071067811865843211 ) ) ;
#177 = FACE_OUTER_BOUND ( 'NONE', #266, .T. ) ;
#178 = APPROVAL_PERSON_ORGANIZATION ( #128, #131, #48 ) ;
#179 = PLANE ( 'NONE',  #259 ) ;
#180 = EDGE_CURVE ( 'NONE', #224, #47, #262, .T. ) ;
#181 = AXIS2_PLACEMENT_3D ( 'NONE', #170, #45, #61 ) ;
#182 = DIRECTION ( 'NONE',  ( 0.0000000000000000000, 0.0000000000000000000, -1.000000000000000000 ) ) ;
#183 = APPROVAL_PERSON_ORGANIZATION ( #44, #85, #175 ) ;
#184 = FACE_OUTER_BOUND ( 'NONE', #96, .T. ) ;
#185 = EDGE_CURVE ( 'NONE', #35, #158, #218, .T. ) ;
#186 = DIRECTION ( 'NONE',  ( -1.000000000000000000, -0.0000000000000000000, -0.0000000000000000000 ) ) ;
#187 = CARTESIAN_POINT ( 'NONE',  ( 1.000000000000000000, 0.0000000000000000000, 0.0000000000000000000 ) ) ;
#188 = AXIS2_PLACEMENT_3D ( 'NONE', #275, #84, #41 ) ;
#189 = CARTESIAN_POINT ( 'NONE',  ( 1.000000000000000000, 0.0000000000000000000, 12.50000000000000000 ) ) ;
#190 = ORIENTED_EDGE ( 'NONE', *, *, #69, .T. ) ;
#191 = SECURITY_CLASSIFICATION_LEVEL ( 'unclassified' ) ;
#192 = CALENDAR_DATE ( 2020, 4, 11 ) ;
#193 = EDGE_CURVE ( 'NONE', #47, #224, #201, .T. ) ;
#194 = VERTEX_POINT ( 'NONE', #231 ) ;
#195 = EDGE_CURVE ( 'NONE', #150, #134, #209, .T. ) ;
#196 = CC_DESIGN_PERSON_AND_ORGANIZATION_ASSIGNMENT ( #137, #24, ( #34 ) ) ;
#197 = ADVANCED_FACE ( 'NONE', ( #11 ), #240, .T. ) ;
#198 = ORIENTED_EDGE ( 'NONE', *, *, #15, .F. ) ;
#199 = ORIENTED_EDGE ( 'NONE', *, *, #8, .T. ) ;
#200 = DIRECTION ( 'NONE',  ( 1.000000000000000000, 0.0000000000000000000, 0.0000000000000000000 ) ) ;
#201 = CIRCLE ( 'NONE', #90, 12.44999999999999929 ) ;
#202 = CARTESIAN_POINT ( 'NONE',  ( 1.000000000000000000, 0.0000000000000000000, 0.0000000000000000000 ) ) ;
#203 = CC_DESIGN_APPROVAL ( #85, ( #110 ) ) ;
#204 = VERTEX_POINT ( 'NONE', #252 ) ;
#205 = PERSON_AND_ORGANIZATION ( #77, #242 ) ;
#206 = CARTESIAN_POINT ( 'NONE',  ( 1.000000000000000000, 0.0000000000000000000, 0.0000000000000000000 ) ) ;
#207 = ORIENTED_EDGE ( 'NONE', *, *, #135, .F. ) ;
#208 = CARTESIAN_POINT ( 'NONE',  ( -0.9499999999999968470, 0.0000000000000000000, 12.50000000000000000 ) ) ;
#209 = LINE ( 'NONE', #109, #159 ) ;
#210 = AXIS2_PLACEMENT_3D ( 'NONE', #82, #226, #182 ) ;
#211 = AXIS2_PLACEMENT_3D ( 'NONE', #232, #169, #43 ) ;
#212 = LOCAL_TIME ( 8, 43, 3.000000000000000000, #36 ) ;
#213 = DIRECTION ( 'NONE',  ( -1.000000000000000000, 0.0000000000000000000, 0.0000000000000000000 ) ) ;
#214 = DIRECTION ( 'NONE',  ( -1.000000000000000000, 0.0000000000000000000, 0.0000000000000000000 ) ) ;
#215 = ORIENTED_EDGE ( 'NONE', *, *, #195, .F. ) ;
#216 = ORIENTED_EDGE ( 'NONE', *, *, #229, .F. ) ;
#217 = ORIENTED_EDGE ( 'NONE', *, *, #193, .F. ) ;
#218 = LINE ( 'NONE', #189, #269 ) ;
#219 = ADVANCED_BREP_SHAPE_REPRESENTATION ( 'Web Model 11877_13337', ( #268, #4 ), #70 ) ;
#220 = LOCAL_TIME ( 8, 43, 3.000000000000000000, #80 ) ;
#221 = PERSON_AND_ORGANIZATION_ROLE ( 'creator' ) ;
#222 = ORIENTED_EDGE ( 'NONE', *, *, #129, .F. ) ;
#223 = AXIS2_PLACEMENT_3D ( 'NONE', #74, #213, #166 ) ;
#224 = VERTEX_POINT ( 'NONE', #248 ) ;
#225 = CIRCLE ( 'NONE', #210, 12.45000000000000284 ) ;
#226 = DIRECTION ( 'NONE',  ( 1.000000000000000000, 0.0000000000000000000, 0.0000000000000000000 ) ) ;
#227 = AXIS2_PLACEMENT_3D ( 'NONE', #267, #16, #117 ) ;
#228 = CC_DESIGN_PERSON_AND_ORGANIZATION_ASSIGNMENT ( #55, #149, ( #145 ) ) ;
#229 = EDGE_CURVE ( 'NONE', #134, #35, #50, .T. ) ;
#230 = VECTOR ( 'NONE', #141, 1000.000000000000000 ) ;
#231 = CARTESIAN_POINT ( 'NONE',  ( 1.000000000000000000, 0.0000000000000000000, 12.45000000000000284 ) ) ;
#232 = CARTESIAN_POINT ( 'NONE',  ( -0.9499999999999968470, 0.0000000000000000000, 0.0000000000000000000 ) ) ;
#233 = DIRECTION ( 'NONE',  ( -1.000000000000000000, -0.0000000000000000000, -0.0000000000000000000 ) ) ;
#234 = ADVANCED_FACE ( 'NONE', ( #151 ), #9, .T. ) ;
#235 = CONICAL_SURFACE ( 'NONE', #59, 12.45000000000000284, 0.7853981633975003485 ) ;
#236 = LOCAL_TIME ( 8, 43, 3.000000000000000000, #97 ) ;
#237 = MECHANICAL_CONTEXT ( 'NONE', #104, 'mechanical' ) ;
#238 = CC_DESIGN_PERSON_AND_ORGANIZATION_ASSIGNMENT ( #133, #25, ( #110 ) ) ;
#239 = DIRECTION ( 'NONE',  ( 1.000000000000000000, -0.0000000000000000000, -0.0000000000000000000 ) ) ;
#240 = CONICAL_SURFACE ( 'NONE', #211, 12.50000000000000000, 0.7853981633974309595 ) ;
#241 = EDGE_CURVE ( 'NONE', #47, #158, #27, .T. ) ;
#242 = ORGANIZATION ( 'UNSPECIFIED', 'UNSPECIFIED', '' ) ;
#243 = CC_DESIGN_PERSON_AND_ORGANIZATION_ASSIGNMENT ( #95, #126, ( #145 ) ) ;
#244 = CARTESIAN_POINT ( 'NONE',  ( -1.000000000000000000, 1.527746881936322985E-15, 12.44999999999999929 ) ) ;
#245 = DIRECTION ( 'NONE',  ( 0.0000000000000000000, 0.0000000000000000000, 1.000000000000000000 ) ) ;
#246 = ORIENTED_EDGE ( 'NONE', *, *, #185, .T. ) ;
#247 = LOCAL_TIME ( 8, 43, 3.000000000000000000, #33 ) ;
#248 = CARTESIAN_POINT ( 'NONE',  ( -1.000000000000000000, 0.0000000000000000000, -12.44999999999999929 ) ) ;
#249 = ORIENTED_EDGE ( 'NONE', *, *, #241, .F. ) ;
#250 = EDGE_CURVE ( 'NONE', #134, #204, #272, .T. ) ;
#251 =( LENGTH_UNIT ( ) NAMED_UNIT ( * ) SI_UNIT ( .MILLI., .METRE. ) );
#252 = CARTESIAN_POINT ( 'NONE',  ( -0.9499999999999968470, 1.530808498934191521E-15, -12.50000000000000000 ) ) ;
#253 = CALENDAR_DATE ( 2020, 4, 11 ) ;
#254 = PRODUCT_DEFINITION_SHAPE ( 'NONE', 'NONE',  #51 ) ;
#255 = CARTESIAN_POINT ( 'NONE',  ( 0.9500000000000072831, 0.0000000000000000000, 0.0000000000000000000 ) ) ;
#256 = ORIENTED_EDGE ( 'NONE', *, *, #129, .T. ) ;
#257 = DATE_AND_TIME ( #38, #236 ) ;
#258 = APPROVAL_STATUS ( 'not_yet_approved' ) ;
#259 = AXIS2_PLACEMENT_3D ( 'NONE', #62, #87, #121 ) ;
#260 = ORIENTED_EDGE ( 'NONE', *, *, #15, .T. ) ;
#261 = APPLICATION_PROTOCOL_DEFINITION ( 'international standard', 'config_control_design', 1994, #114 ) ;
#262 = CIRCLE ( 'NONE', #188, 12.44999999999999929 ) ;
#263 = ORIENTED_EDGE ( 'NONE', *, *, #69, .F. ) ;
#264 = CARTESIAN_POINT ( 'NONE',  ( -0.9499999999999968470, 0.0000000000000000000, -12.50000000000000000 ) ) ;
#265 = DIRECTION ( 'NONE',  ( -1.000000000000000000, -0.0000000000000000000, -0.0000000000000000000 ) ) ;
#266 = EDGE_LOOP ( 'NONE', ( #217, #163, #207, #105 ) ) ;
#267 = CARTESIAN_POINT ( 'NONE',  ( 1.000000000000000000, 0.0000000000000000000, 0.0000000000000000000 ) ) ;
#268 = MANIFOLD_SOLID_BREP ( 'Chamfer1', #140 ) ;
#269 = VECTOR ( 'NONE', #233, 1000.000000000000000 ) ;
#270 = ORIENTED_EDGE ( 'NONE', *, *, #180, .F. ) ;
#271 = ORIENTED_EDGE ( 'NONE', *, *, #250, .F. ) ;
#272 = LINE ( 'NONE', #168, #164 ) ;
#273 = ORIENTED_EDGE ( 'NONE', *, *, #185, .F. ) ;
#274 = AXIS2_PLACEMENT_3D ( 'NONE', #54, #78, #32 ) ;
#275 = CARTESIAN_POINT ( 'NONE',  ( -1.000000000000000000, 0.0000000000000000000, 0.0000000000000000000 ) ) ;
ENDSEC;
END-ISO-10303-21;
