ISO-10303-21;
HEADER;
FILE_DESCRIPTION (( 'STEP AP203' ),
    '1' );
FILE_NAME ('Web Model 43369_20815.step',
    '2022-03-16T14:54:55',
    ( '' ),
    ( '' ),
    'SwSTEP 2.0',
    'SolidWorks 2021',
    '' );
FILE_SCHEMA (( 'CONFIG_CONTROL_DESIGN' ));
ENDSEC;

DATA;
#1 = PERSON_AND_ORGANIZATION_ROLE ( 'classification_officer' ) ;
#2 = APPROVAL_PERSON_ORGANIZATION ( #69, #35, #19 ) ;
#3 = PERSON_AND_ORGANIZATION_ROLE ( 'creator' ) ;
#4 = EDGE_CURVE ( 'NONE', #18, #85, #34, .T. ) ;
#5 = DIRECTION ( 'NONE',  ( -0.000000000000000000, -0.000000000000000000, -1.000000000000000000 ) ) ;
#6 = DIRECTION ( 'NONE',  ( 0.000000000000000000, 0.000000000000000000, 1.000000000000000000 ) ) ;
#7 = PERSON_AND_ORGANIZATION_ROLE ( 'design_owner' ) ;
#8 = CC_DESIGN_PERSON_AND_ORGANIZATION_ASSIGNMENT ( #26, #3, ( #168 ) ) ;
#9 = LINE ( 'NONE', #59, #124 ) ;
#10 = CARTESIAN_POINT ( 'NONE',  ( 0.000000000000000000, 0.000000000000000000, 1.000000000000000000 ) ) ;
#11 =( NAMED_UNIT ( * ) SI_UNIT ( $, .STERADIAN. ) SOLID_ANGLE_UNIT ( ) );
#12 = PERSON_AND_ORGANIZATION ( #71, #30 ) ;
#13 = ORIENTED_EDGE ( 'NONE', *, *, #135, .T. ) ;
#14 = EDGE_LOOP ( 'NONE', ( #90, #40, #93, #73 ) ) ;
#15 = MECHANICAL_CONTEXT ( 'NONE', #83, 'mechanical' ) ;
#16 = CARTESIAN_POINT ( 'NONE',  ( 0.000000000000000000, 0.000000000000000000, 1.000000000000000000 ) ) ;
#17 = CIRCLE ( 'NONE', #115, 12.50000000000000000 ) ;
#18 = VERTEX_POINT ( 'NONE', #101 ) ;
#19 = APPROVAL_ROLE ( '' ) ;
#20 = FACE_OUTER_BOUND ( 'NONE', #130, .T. ) ;
#21 = DIRECTION ( 'NONE',  ( 1.000000000000000000, 0.000000000000000000, -0.000000000000000000 ) ) ;
#22 = FACE_OUTER_BOUND ( 'NONE', #108, .T. ) ;
#23 = AXIS2_PLACEMENT_3D ( 'NONE', #112, #62, #169 ) ;
#24 = SECURITY_CLASSIFICATION_LEVEL ( 'unclassified' ) ;
#25 = ORIENTED_EDGE ( 'NONE', *, *, #135, .F. ) ;
#26 = PERSON_AND_ORGANIZATION ( #71, #30 ) ;
#27 = PERSON_AND_ORGANIZATION ( #71, #30 ) ;
#28 = FACE_OUTER_BOUND ( 'NONE', #14, .T. ) ;
#29 = DIRECTION ( 'NONE',  ( 1.000000000000000000, 0.000000000000000000, 0.000000000000000000 ) ) ;
#30 = ORGANIZATION ( 'UNSPECIFIED', 'UNSPECIFIED', '' ) ;
#31 = FACE_OUTER_BOUND ( 'NONE', #75, .T. ) ;
#32 = PRODUCT_DEFINITION_SHAPE ( 'NONE', 'NONE',  #168 ) ;
#33 = CC_DESIGN_PERSON_AND_ORGANIZATION_ASSIGNMENT ( #163, #44, ( #159 ) ) ;
#34 = CIRCLE ( 'NONE', #139, 12.50000000000000000 ) ;
#35 = APPROVAL ( #128, 'UNSPECIFIED' ) ;
#36 = APPROVAL_PERSON_ORGANIZATION ( #12, #65, #165 ) ;
#37 = CALENDAR_DATE ( 2022, 16, 3 ) ;
#38 = DESIGN_CONTEXT ( 'detailed design', #123, 'design' ) ;
#39 = CIRCLE ( 'NONE', #129, 12.50000000000000000 ) ;
#40 = ORIENTED_EDGE ( 'NONE', *, *, #119, .F. ) ;
#41 = DIRECTION ( 'NONE',  ( 0.000000000000000000, 0.000000000000000000, 1.000000000000000000 ) ) ;
#42 = CIRCLE ( 'NONE', #170, 12.50000000000000000 ) ;
#43 = CARTESIAN_POINT ( 'NONE',  ( 0.000000000000000000, 0.000000000000000000, 1.000000000000000000 ) ) ;
#44 = PERSON_AND_ORGANIZATION_ROLE ( 'creator' ) ;
#45 = DIRECTION ( 'NONE',  ( -0.000000000000000000, -0.000000000000000000, -1.000000000000000000 ) ) ;
#46 = PERSON_AND_ORGANIZATION_ROLE ( 'design_supplier' ) ;
#47 = VECTOR ( 'NONE', #45, 1000.000000000000000 ) ;
#48 = APPROVAL_PERSON_ORGANIZATION ( #27, #105, #175 ) ;
#49 = DIRECTION ( 'NONE',  ( -0.000000000000000000, -0.000000000000000000, -1.000000000000000000 ) ) ;
#50 = AXIS2_PLACEMENT_3D ( 'NONE', #43, #6, #21 ) ;
#51 = EDGE_CURVE ( 'NONE', #85, #18, #39, .T. ) ;
#52 = CALENDAR_DATE ( 2022, 16, 3 ) ;
#53 = ORIENTED_EDGE ( 'NONE', *, *, #51, .F. ) ;
#54 = APPLICATION_PROTOCOL_DEFINITION ( 'international standard', 'config_control_design', 1994, #123 ) ;
#55 = ORIENTED_EDGE ( 'NONE', *, *, #119, .T. ) ;
#56 = DIRECTION ( 'NONE',  ( 1.000000000000000000, 0.000000000000000000, 0.000000000000000000 ) ) ;
#57 = UNCERTAINTY_MEASURE_WITH_UNIT (LENGTH_MEASURE( 1.000000000000000082E-05 ), #145, 'distance_accuracy_value', 'NONE');
#58 = DIRECTION ( 'NONE',  ( -1.000000000000000000, 0.000000000000000000, 0.000000000000000000 ) ) ;
#59 = CARTESIAN_POINT ( 'NONE',  ( 12.50000000000000000, 1.530808498934191521E-15, 1.000000000000000000 ) ) ;
#60 = ADVANCED_FACE ( 'NONE', ( #28 ), #125, .T. ) ;
#61 = AXIS2_PLACEMENT_3D ( 'NONE', #10, #49, #160 ) ;
#62 = DIRECTION ( 'NONE',  ( 0.000000000000000000, 0.000000000000000000, 1.000000000000000000 ) ) ;
#63 = COORDINATED_UNIVERSAL_TIME_OFFSET ( 5, 0, .BEHIND. ) ;
#64 = DIRECTION ( 'NONE',  ( -0.000000000000000000, -0.000000000000000000, -1.000000000000000000 ) ) ;
#65 = APPROVAL ( #98, 'UNSPECIFIED' ) ;
#66 = ADVANCED_BREP_SHAPE_REPRESENTATION ( 'Web Model 43369_20815', ( #81, #162 ), #97 ) ;
#67 = DATE_AND_TIME ( #147, #173 ) ;
#68 = CC_DESIGN_SECURITY_CLASSIFICATION ( #118, ( #159 ) ) ;
#69 = PERSON_AND_ORGANIZATION ( #71, #30 ) ;
#70 = ORIENTED_EDGE ( 'NONE', *, *, #4, .F. ) ;
#71 = PERSON ( 'UNSPECIFIED', 'UNSPECIFIED', 'UNSPECIFIED', ('UNSPECIFIED'), ('UNSPECIFIED'), ('UNSPECIFIED') ) ;
#72 = PERSON_AND_ORGANIZATION ( #71, #30 ) ;
#73 = ORIENTED_EDGE ( 'NONE', *, *, #4, .T. ) ;
#74 = CALENDAR_DATE ( 2022, 16, 3 ) ;
#75 = EDGE_LOOP ( 'NONE', ( #70, #53 ) ) ;
#76 = CARTESIAN_POINT ( 'NONE',  ( 0.000000000000000000, 0.000000000000000000, 0.000000000000000000 ) ) ;
#77 = CC_DESIGN_PERSON_AND_ORGANIZATION_ASSIGNMENT ( #131, #46, ( #159 ) ) ;
#78 = COORDINATED_UNIVERSAL_TIME_OFFSET ( 5, 0, .BEHIND. ) ;
#79 = APPROVAL_DATE_TIME ( #158, #105 ) ;
#80 = CC_DESIGN_PERSON_AND_ORGANIZATION_ASSIGNMENT ( #72, #7, ( #89 ) ) ;
#81 = MANIFOLD_SOLID_BREP ( 'Boss-Extrude1', #106 ) ;
#82 = CYLINDRICAL_SURFACE ( 'NONE', #61, 12.50000000000000000 ) ;
#83 = APPLICATION_CONTEXT ( 'configuration controlled 3d designs of mechanical parts and assemblies' ) ;
#84 = APPROVAL_DATE_TIME ( #88, #65 ) ;
#85 = VERTEX_POINT ( 'NONE', #138 ) ;
#86 = CC_DESIGN_APPROVAL ( #65, ( #159 ) ) ;
#87 = CARTESIAN_POINT ( 'NONE',  ( 0.000000000000000000, 0.000000000000000000, 0.000000000000000000 ) ) ;
#88 = DATE_AND_TIME ( #148, #133 ) ;
#89 = PRODUCT ( 'Web Model 43369_20815', 'Web Model 43369_20815', '', ( #15 ) ) ;
#90 = ORIENTED_EDGE ( 'NONE', *, *, #146, .F. ) ;
#91 = LOCAL_TIME ( 10, 54, 55.00000000000000000, #78 ) ;
#92 = ADVANCED_FACE ( 'NONE', ( #20 ), #155, .T. ) ;
#93 = ORIENTED_EDGE ( 'NONE', *, *, #154, .T. ) ;
#94 = DIRECTION ( 'NONE',  ( 0.000000000000000000, 0.000000000000000000, 1.000000000000000000 ) ) ;
#95 = LOCAL_TIME ( 10, 54, 55.00000000000000000, #100 ) ;
#96 = CC_DESIGN_DATE_AND_TIME_ASSIGNMENT ( #67, #110, ( #168 ) ) ;
#97 =( GEOMETRIC_REPRESENTATION_CONTEXT ( 3 ) GLOBAL_UNCERTAINTY_ASSIGNED_CONTEXT ( ( #57 ) ) GLOBAL_UNIT_ASSIGNED_CONTEXT ( ( #145, #116, #11 ) ) REPRESENTATION_CONTEXT ( 'NONE', 'WORKASPACE' ) );
#98 = APPROVAL_STATUS ( 'not_yet_approved' ) ;
#99 = LOCAL_TIME ( 10, 54, 55.00000000000000000, #122 ) ;
#100 = COORDINATED_UNIVERSAL_TIME_OFFSET ( 5, 0, .BEHIND. ) ;
#101 = CARTESIAN_POINT ( 'NONE',  ( -12.50000000000000000, 0.000000000000000000, 0.000000000000000000 ) ) ;
#102 = DIRECTION ( 'NONE',  ( 1.000000000000000000, 0.000000000000000000, 0.000000000000000000 ) ) ;
#103 = CARTESIAN_POINT ( 'NONE',  ( -12.50000000000000000, 0.000000000000000000, 1.000000000000000000 ) ) ;
#104 = DATE_TIME_ROLE ( 'classification_date' ) ;
#105 = APPROVAL ( #117, 'UNSPECIFIED' ) ;
#106 = CLOSED_SHELL ( 'NONE', ( #172, #60, #92, #114 ) ) ;
#107 = CC_DESIGN_APPROVAL ( #35, ( #168 ) ) ;
#108 = EDGE_LOOP ( 'NONE', ( #25, #152, #134, #161 ) ) ;
#109 = DIRECTION ( 'NONE',  ( 0.000000000000000000, 0.000000000000000000, 1.000000000000000000 ) ) ;
#110 = DATE_TIME_ROLE ( 'creation_date' ) ;
#111 = DIRECTION ( 'NONE',  ( 0.000000000000000000, 0.000000000000000000, 1.000000000000000000 ) ) ;
#112 = CARTESIAN_POINT ( 'NONE',  ( 0.000000000000000000, 0.000000000000000000, 0.000000000000000000 ) ) ;
#113 = CARTESIAN_POINT ( 'NONE',  ( -12.50000000000000000, 0.000000000000000000, 1.000000000000000000 ) ) ;
#114 = ADVANCED_FACE ( 'NONE', ( #31 ), #141, .F. ) ;
#115 = AXIS2_PLACEMENT_3D ( 'NONE', #127, #111, #157 ) ;
#116 =( NAMED_UNIT ( * ) PLANE_ANGLE_UNIT ( ) SI_UNIT ( $, .RADIAN. ) );
#117 = APPROVAL_STATUS ( 'not_yet_approved' ) ;
#118 = SECURITY_CLASSIFICATION ( '', '', #24 ) ;
#119 = EDGE_CURVE ( 'NONE', #164, #132, #42, .T. ) ;
#120 = PERSON_AND_ORGANIZATION ( #71, #30 ) ;
#121 = DIRECTION ( 'NONE',  ( 0.000000000000000000, 0.000000000000000000, 1.000000000000000000 ) ) ;
#122 = COORDINATED_UNIVERSAL_TIME_OFFSET ( 5, 0, .BEHIND. ) ;
#123 = APPLICATION_CONTEXT ( 'configuration controlled 3d designs of mechanical parts and assemblies' ) ;
#124 = VECTOR ( 'NONE', #64, 1000.000000000000000 ) ;
#125 = CYLINDRICAL_SURFACE ( 'NONE', #174, 12.50000000000000000 ) ;
#126 = APPROVAL_DATE_TIME ( #167, #35 ) ;
#127 = CARTESIAN_POINT ( 'NONE',  ( 0.000000000000000000, 0.000000000000000000, 1.000000000000000000 ) ) ;
#128 = APPROVAL_STATUS ( 'not_yet_approved' ) ;
#129 = AXIS2_PLACEMENT_3D ( 'NONE', #151, #41, #29 ) ;
#130 = EDGE_LOOP ( 'NONE', ( #55, #13 ) ) ;
#131 = PERSON_AND_ORGANIZATION ( #71, #30 ) ;
#132 = VERTEX_POINT ( 'NONE', #140 ) ;
#133 = LOCAL_TIME ( 10, 54, 55.00000000000000000, #63 ) ;
#134 = ORIENTED_EDGE ( 'NONE', *, *, #51, .T. ) ;
#135 = EDGE_CURVE ( 'NONE', #132, #164, #17, .T. ) ;
#136 = DIRECTION ( 'NONE',  ( 1.000000000000000000, 0.000000000000000000, 0.000000000000000000 ) ) ;
#137 = APPLICATION_PROTOCOL_DEFINITION ( 'international standard', 'config_control_design', 1994, #83 ) ;
#138 = CARTESIAN_POINT ( 'NONE',  ( 12.50000000000000000, 1.530808498934191521E-15, 0.000000000000000000 ) ) ;
#139 = AXIS2_PLACEMENT_3D ( 'NONE', #76, #121, #56 ) ;
#140 = CARTESIAN_POINT ( 'NONE',  ( 12.50000000000000000, 1.530808498934191521E-15, 1.000000000000000000 ) ) ;
#141 = PLANE ( 'NONE',  #23 ) ;
#142 = CC_DESIGN_APPROVAL ( #105, ( #118 ) ) ;
#143 = SHAPE_DEFINITION_REPRESENTATION ( #32, #66 ) ;
#144 = PRODUCT_RELATED_PRODUCT_CATEGORY ( 'detail', '', ( #89 ) ) ;
#145 =( LENGTH_UNIT ( ) NAMED_UNIT ( * ) SI_UNIT ( .MILLI., .METRE. ) );
#146 = EDGE_CURVE ( 'NONE', #132, #85, #9, .T. ) ;
#147 = CALENDAR_DATE ( 2022, 16, 3 ) ;
#148 = CALENDAR_DATE ( 2022, 16, 3 ) ;
#149 = DATE_AND_TIME ( #74, #95 ) ;
#150 = CC_DESIGN_PERSON_AND_ORGANIZATION_ASSIGNMENT ( #120, #1, ( #118 ) ) ;
#151 = CARTESIAN_POINT ( 'NONE',  ( 0.000000000000000000, 0.000000000000000000, 0.000000000000000000 ) ) ;
#152 = ORIENTED_EDGE ( 'NONE', *, *, #146, .T. ) ;
#153 = CC_DESIGN_DATE_AND_TIME_ASSIGNMENT ( #149, #104, ( #118 ) ) ;
#154 = EDGE_CURVE ( 'NONE', #164, #18, #166, .T. ) ;
#155 = PLANE ( 'NONE',  #50 ) ;
#156 = COORDINATED_UNIVERSAL_TIME_OFFSET ( 5, 0, .BEHIND. ) ;
#157 = DIRECTION ( 'NONE',  ( 1.000000000000000000, 0.000000000000000000, 0.000000000000000000 ) ) ;
#158 = DATE_AND_TIME ( #52, #99 ) ;
#159 = PRODUCT_DEFINITION_FORMATION_WITH_SPECIFIED_SOURCE ( 'ANY', '', #89, .NOT_KNOWN. ) ;
#160 = DIRECTION ( 'NONE',  ( -1.000000000000000000, 0.000000000000000000, 0.000000000000000000 ) ) ;
#161 = ORIENTED_EDGE ( 'NONE', *, *, #154, .F. ) ;
#162 = AXIS2_PLACEMENT_3D ( 'NONE', #87, #94, #102 ) ;
#163 = PERSON_AND_ORGANIZATION ( #71, #30 ) ;
#164 = VERTEX_POINT ( 'NONE', #103 ) ;
#165 = APPROVAL_ROLE ( '' ) ;
#166 = LINE ( 'NONE', #113, #47 ) ;
#167 = DATE_AND_TIME ( #37, #91 ) ;
#168 = PRODUCT_DEFINITION ( 'UNKNOWN', '', #159, #38 ) ;
#169 = DIRECTION ( 'NONE',  ( 1.000000000000000000, 0.000000000000000000, -0.000000000000000000 ) ) ;
#170 = AXIS2_PLACEMENT_3D ( 'NONE', #171, #109, #136 ) ;
#171 = CARTESIAN_POINT ( 'NONE',  ( 0.000000000000000000, 0.000000000000000000, 1.000000000000000000 ) ) ;
#172 = ADVANCED_FACE ( 'NONE', ( #22 ), #82, .T. ) ;
#173 = LOCAL_TIME ( 10, 54, 55.00000000000000000, #156 ) ;
#174 = AXIS2_PLACEMENT_3D ( 'NONE', #16, #5, #58 ) ;
#175 = APPROVAL_ROLE ( '' ) ;
ENDSEC;
END-ISO-10303-21;
