ISO-10303-21;
HEADER;
FILE_DESCRIPTION (( 'STEP AP203' ),
    '1' );
FILE_NAME ('Web Model 63209_15970.step',
    '2020-10-07T17:40:02',
    ( '' ),
    ( '' ),
    'SwSTEP 2.0',
    'SolidWorks 2018',
    '' );
FILE_SCHEMA (( 'CONFIG_CONTROL_DESIGN' ));
ENDSEC;

DATA;
#1 = VERTEX_POINT ( 'NONE', #126 ) ;
#2 = AXIS2_PLACEMENT_3D ( 'NONE', #10, #124, #153 ) ;
#3 = CIRCLE ( 'NONE', #170, 20.00000000000000000 ) ;
#4 = DIRECTION ( 'NONE',  ( 0.0000000000000000000, 0.0000000000000000000, 1.000000000000000000 ) ) ;
#5 = APPROVAL_ROLE ( '' ) ;
#6 = EDGE_LOOP ( 'NONE', ( #158, #155, #174, #26 ) ) ;
#7 = DESIGN_CONTEXT ( 'detailed design', #95, 'design' ) ;
#8 = ORIENTED_EDGE ( 'NONE', *, *, #122, .F. ) ;
#9 = CC_DESIGN_DATE_AND_TIME_ASSIGNMENT ( #109, #129, ( #138 ) ) ;
#10 = CARTESIAN_POINT ( 'NONE',  ( 0.0000000000000000000, 0.0000000000000000000, 0.0000000000000000000 ) ) ;
#11 = CIRCLE ( 'NONE', #55, 20.00000000000000000 ) ;
#12 = CARTESIAN_POINT ( 'NONE',  ( 0.0000000000000000000, 0.0000000000000000000, 3.000000000000000000 ) ) ;
#13 = PERSON ( 'UNSPECIFIED', 'UNSPECIFIED', 'UNSPECIFIED', ('UNSPECIFIED'), ('UNSPECIFIED'), ('UNSPECIFIED') ) ;
#14 = APPROVAL ( #81, 'UNSPECIFIED' ) ;
#15 = APPROVAL_ROLE ( '' ) ;
#16 = ADVANCED_FACE ( 'NONE', ( #113 ), #156, .T. ) ;
#17 = ORIENTED_EDGE ( 'NONE', *, *, #70, .F. ) ;
#18 = AXIS2_PLACEMENT_3D ( 'NONE', #80, #163, #82 ) ;
#19 = SECURITY_CLASSIFICATION_LEVEL ( 'unclassified' ) ;
#20 = CC_DESIGN_PERSON_AND_ORGANIZATION_ASSIGNMENT ( #53, #161, ( #104 ) ) ;
#21 = AXIS2_PLACEMENT_3D ( 'NONE', #88, #4, #146 ) ;
#22 = DIRECTION ( 'NONE',  ( -0.0000000000000000000, -0.0000000000000000000, -1.000000000000000000 ) ) ;
#23 = CIRCLE ( 'NONE', #2, 20.00000000000000000 ) ;
#24 = DIRECTION ( 'NONE',  ( -0.0000000000000000000, -0.0000000000000000000, -1.000000000000000000 ) ) ;
#25 = VERTEX_POINT ( 'NONE', #98 ) ;
#26 = ORIENTED_EDGE ( 'NONE', *, *, #120, .T. ) ;
#27 = CALENDAR_DATE ( 2020, 7, 10 ) ;
#28 = DIRECTION ( 'NONE',  ( 1.000000000000000000, 0.0000000000000000000, -0.0000000000000000000 ) ) ;
#29 = SHAPE_DEFINITION_REPRESENTATION ( #58, #42 ) ;
#30 = CC_DESIGN_SECURITY_CLASSIFICATION ( #138, ( #104 ) ) ;
#31 =( NAMED_UNIT ( * ) SI_UNIT ( $, .STERADIAN. ) SOLID_ANGLE_UNIT ( ) );
#32 = ADVANCED_FACE ( 'NONE', ( #166 ), #38, .T. ) ;
#33 = DATE_AND_TIME ( #99, #72 ) ;
#34 = ADVANCED_FACE ( 'NONE', ( #133 ), #48, .F. ) ;
#35 = LOCAL_TIME ( 13, 40, 2.000000000000000000, #157 ) ;
#36 = VERTEX_POINT ( 'NONE', #71 ) ;
#37 =( LENGTH_UNIT ( ) NAMED_UNIT ( * ) SI_UNIT ( .MILLI., .METRE. ) );
#38 = CYLINDRICAL_SURFACE ( 'NONE', #18, 20.00000000000000000 ) ;
#39 = PERSON_AND_ORGANIZATION_ROLE ( 'creator' ) ;
#40 = APPROVAL_PERSON_ORGANIZATION ( #127, #14, #15 ) ;
#41 = APPROVAL_DATE_TIME ( #102, #49 ) ;
#42 = ADVANCED_BREP_SHAPE_REPRESENTATION ( 'Web Model 63209_15970', ( #69, #44 ), #63 ) ;
#43 = EDGE_LOOP ( 'NONE', ( #8, #65, #85, #17 ) ) ;
#44 = AXIS2_PLACEMENT_3D ( 'NONE', #51, #119, #54 ) ;
#45 = DATE_AND_TIME ( #150, #61 ) ;
#46 = LINE ( 'NONE', #165, #101 ) ;
#47 = AXIS2_PLACEMENT_3D ( 'NONE', #60, #24, #149 ) ;
#48 = PLANE ( 'NONE',  #21 ) ;
#49 = APPROVAL ( #173, 'UNSPECIFIED' ) ;
#50 = PERSON_AND_ORGANIZATION ( #13, #100 ) ;
#51 = CARTESIAN_POINT ( 'NONE',  ( 0.0000000000000000000, 0.0000000000000000000, 0.0000000000000000000 ) ) ;
#52 = EDGE_CURVE ( 'NONE', #25, #1, #123, .T. ) ;
#53 = PERSON_AND_ORGANIZATION ( #13, #100 ) ;
#54 = DIRECTION ( 'NONE',  ( 1.000000000000000000, 0.0000000000000000000, 0.0000000000000000000 ) ) ;
#55 = AXIS2_PLACEMENT_3D ( 'NONE', #130, #136, #89 ) ;
#56 = APPROVAL_PERSON_ORGANIZATION ( #106, #49, #67 ) ;
#57 = CARTESIAN_POINT ( 'NONE',  ( 20.00000000000000000, 2.449293598294706513E-15, 3.000000000000000000 ) ) ;
#58 = PRODUCT_DEFINITION_SHAPE ( 'NONE', 'NONE',  #162 ) ;
#59 = CLOSED_SHELL ( 'NONE', ( #16, #32, #108, #34 ) ) ;
#60 = CARTESIAN_POINT ( 'NONE',  ( 0.0000000000000000000, 0.0000000000000000000, 3.000000000000000000 ) ) ;
#61 = LOCAL_TIME ( 13, 40, 2.000000000000000000, #84 ) ;
#62 = EDGE_LOOP ( 'NONE', ( #143, #107 ) ) ;
#63 =( GEOMETRIC_REPRESENTATION_CONTEXT ( 3 ) GLOBAL_UNCERTAINTY_ASSIGNED_CONTEXT ( ( #142 ) ) GLOBAL_UNIT_ASSIGNED_CONTEXT ( ( #37, #77, #31 ) ) REPRESENTATION_CONTEXT ( 'NONE', 'WORKASPACE' ) );
#64 = PRODUCT ( 'Web Model 63209_15970', 'Web Model 63209_15970', '', ( #154 ) ) ;
#65 = ORIENTED_EDGE ( 'NONE', *, *, #52, .T. ) ;
#66 = CARTESIAN_POINT ( 'NONE',  ( 0.0000000000000000000, 0.0000000000000000000, 3.000000000000000000 ) ) ;
#67 = APPROVAL_ROLE ( '' ) ;
#68 = VECTOR ( 'NONE', #22, 1000.000000000000000 ) ;
#69 = MANIFOLD_SOLID_BREP ( 'Extrude1', #59 ) ;
#70 = EDGE_CURVE ( 'NONE', #36, #105, #46, .T. ) ;
#71 = CARTESIAN_POINT ( 'NONE',  ( -20.00000000000000000, 0.0000000000000000000, 3.000000000000000000 ) ) ;
#72 = LOCAL_TIME ( 13, 40, 2.000000000000000000, #168 ) ;
#73 = DIRECTION ( 'NONE',  ( 0.0000000000000000000, 0.0000000000000000000, 1.000000000000000000 ) ) ;
#74 = PLANE ( 'NONE',  #159 ) ;
#75 = PERSON_AND_ORGANIZATION ( #13, #100 ) ;
#76 = DIRECTION ( 'NONE',  ( 1.000000000000000000, 0.0000000000000000000, 0.0000000000000000000 ) ) ;
#77 =( NAMED_UNIT ( * ) PLANE_ANGLE_UNIT ( ) SI_UNIT ( $, .RADIAN. ) );
#78 = EDGE_CURVE ( 'NONE', #36, #25, #3, .T. ) ;
#79 = DIRECTION ( 'NONE',  ( 0.0000000000000000000, 0.0000000000000000000, 1.000000000000000000 ) ) ;
#80 = CARTESIAN_POINT ( 'NONE',  ( 0.0000000000000000000, 0.0000000000000000000, 3.000000000000000000 ) ) ;
#81 = APPROVAL_STATUS ( 'not_yet_approved' ) ;
#82 = DIRECTION ( 'NONE',  ( -1.000000000000000000, 0.0000000000000000000, 0.0000000000000000000 ) ) ;
#83 = FACE_OUTER_BOUND ( 'NONE', #62, .T. ) ;
#84 = COORDINATED_UNIVERSAL_TIME_OFFSET ( 5, 0, .BEHIND. ) ;
#85 = ORIENTED_EDGE ( 'NONE', *, *, #116, .T. ) ;
#86 = CIRCLE ( 'NONE', #147, 20.00000000000000000 ) ;
#87 = ORIENTED_EDGE ( 'NONE', *, *, #120, .F. ) ;
#88 = CARTESIAN_POINT ( 'NONE',  ( 0.0000000000000000000, 0.0000000000000000000, 0.0000000000000000000 ) ) ;
#89 = DIRECTION ( 'NONE',  ( 1.000000000000000000, 0.0000000000000000000, 0.0000000000000000000 ) ) ;
#90 = CARTESIAN_POINT ( 'NONE',  ( 0.0000000000000000000, 0.0000000000000000000, 3.000000000000000000 ) ) ;
#91 = ORIENTED_EDGE ( 'NONE', *, *, #116, .F. ) ;
#92 = DIRECTION ( 'NONE',  ( 1.000000000000000000, 0.0000000000000000000, 0.0000000000000000000 ) ) ;
#93 = CC_DESIGN_PERSON_AND_ORGANIZATION_ASSIGNMENT ( #75, #39, ( #162 ) ) ;
#94 = CC_DESIGN_APPROVAL ( #134, ( #138 ) ) ;
#95 = APPLICATION_CONTEXT ( 'configuration controlled 3d designs of mechanical parts and assemblies' ) ;
#96 = CALENDAR_DATE ( 2020, 7, 10 ) ;
#97 = APPLICATION_PROTOCOL_DEFINITION ( 'international standard', 'config_control_design', 1994, #140 ) ;
#98 = CARTESIAN_POINT ( 'NONE',  ( 20.00000000000000000, 2.449293598294706513E-15, 3.000000000000000000 ) ) ;
#99 = CALENDAR_DATE ( 2020, 7, 10 ) ;
#100 = ORGANIZATION ( 'UNSPECIFIED', 'UNSPECIFIED', '' ) ;
#101 = VECTOR ( 'NONE', #128, 1000.000000000000000 ) ;
#102 = DATE_AND_TIME ( #27, #139 ) ;
#103 = APPROVAL_STATUS ( 'not_yet_approved' ) ;
#104 = PRODUCT_DEFINITION_FORMATION_WITH_SPECIFIED_SOURCE ( 'ANY', '', #64, .NOT_KNOWN. ) ;
#105 = VERTEX_POINT ( 'NONE', #169 ) ;
#106 = PERSON_AND_ORGANIZATION ( #13, #100 ) ;
#107 = ORIENTED_EDGE ( 'NONE', *, *, #122, .T. ) ;
#108 = ADVANCED_FACE ( 'NONE', ( #83 ), #74, .T. ) ;
#109 = DATE_AND_TIME ( #172, #115 ) ;
#110 = EDGE_LOOP ( 'NONE', ( #87, #91 ) ) ;
#111 = PERSON_AND_ORGANIZATION_ROLE ( 'classification_officer' ) ;
#112 = PERSON_AND_ORGANIZATION_ROLE ( 'design_supplier' ) ;
#113 = FACE_OUTER_BOUND ( 'NONE', #43, .T. ) ;
#114 = CC_DESIGN_APPROVAL ( #14, ( #162 ) ) ;
#115 = LOCAL_TIME ( 13, 40, 2.000000000000000000, #135 ) ;
#116 = EDGE_CURVE ( 'NONE', #1, #105, #11, .T. ) ;
#117 = CC_DESIGN_PERSON_AND_ORGANIZATION_ASSIGNMENT ( #50, #111, ( #138 ) ) ;
#118 = DIRECTION ( 'NONE',  ( 0.0000000000000000000, 0.0000000000000000000, 1.000000000000000000 ) ) ;
#119 = DIRECTION ( 'NONE',  ( 0.0000000000000000000, 0.0000000000000000000, 1.000000000000000000 ) ) ;
#120 = EDGE_CURVE ( 'NONE', #105, #1, #23, .T. ) ;
#121 = CC_DESIGN_PERSON_AND_ORGANIZATION_ASSIGNMENT ( #145, #160, ( #64 ) ) ;
#122 = EDGE_CURVE ( 'NONE', #25, #36, #86, .T. ) ;
#123 = LINE ( 'NONE', #57, #68 ) ;
#124 = DIRECTION ( 'NONE',  ( 0.0000000000000000000, 0.0000000000000000000, 1.000000000000000000 ) ) ;
#125 = APPLICATION_PROTOCOL_DEFINITION ( 'international standard', 'config_control_design', 1994, #95 ) ;
#126 = CARTESIAN_POINT ( 'NONE',  ( 20.00000000000000000, 2.449293598294706513E-15, 0.0000000000000000000 ) ) ;
#127 = PERSON_AND_ORGANIZATION ( #13, #100 ) ;
#128 = DIRECTION ( 'NONE',  ( -0.0000000000000000000, -0.0000000000000000000, -1.000000000000000000 ) ) ;
#129 = DATE_TIME_ROLE ( 'classification_date' ) ;
#130 = CARTESIAN_POINT ( 'NONE',  ( 0.0000000000000000000, 0.0000000000000000000, 0.0000000000000000000 ) ) ;
#131 = DATE_TIME_ROLE ( 'creation_date' ) ;
#132 = CC_DESIGN_APPROVAL ( #49, ( #104 ) ) ;
#133 = FACE_OUTER_BOUND ( 'NONE', #110, .T. ) ;
#134 = APPROVAL ( #103, 'UNSPECIFIED' ) ;
#135 = COORDINATED_UNIVERSAL_TIME_OFFSET ( 5, 0, .BEHIND. ) ;
#136 = DIRECTION ( 'NONE',  ( 0.0000000000000000000, 0.0000000000000000000, 1.000000000000000000 ) ) ;
#137 = APPROVAL_PERSON_ORGANIZATION ( #144, #134, #5 ) ;
#138 = SECURITY_CLASSIFICATION ( '', '', #19 ) ;
#139 = LOCAL_TIME ( 13, 40, 2.000000000000000000, #148 ) ;
#140 = APPLICATION_CONTEXT ( 'configuration controlled 3d designs of mechanical parts and assemblies' ) ;
#141 = APPROVAL_DATE_TIME ( #45, #14 ) ;
#142 = UNCERTAINTY_MEASURE_WITH_UNIT (LENGTH_MEASURE( 1.000000000000000082E-05 ), #37, 'distance_accuracy_value', 'NONE');
#143 = ORIENTED_EDGE ( 'NONE', *, *, #78, .T. ) ;
#144 = PERSON_AND_ORGANIZATION ( #13, #100 ) ;
#145 = PERSON_AND_ORGANIZATION ( #13, #100 ) ;
#146 = DIRECTION ( 'NONE',  ( 1.000000000000000000, 0.0000000000000000000, -0.0000000000000000000 ) ) ;
#147 = AXIS2_PLACEMENT_3D ( 'NONE', #66, #79, #92 ) ;
#148 = COORDINATED_UNIVERSAL_TIME_OFFSET ( 5, 0, .BEHIND. ) ;
#149 = DIRECTION ( 'NONE',  ( -1.000000000000000000, 0.0000000000000000000, 0.0000000000000000000 ) ) ;
#150 = CALENDAR_DATE ( 2020, 7, 10 ) ;
#151 = DATE_AND_TIME ( #96, #35 ) ;
#152 = CC_DESIGN_DATE_AND_TIME_ASSIGNMENT ( #33, #131, ( #162 ) ) ;
#153 = DIRECTION ( 'NONE',  ( 1.000000000000000000, 0.0000000000000000000, 0.0000000000000000000 ) ) ;
#154 = MECHANICAL_CONTEXT ( 'NONE', #140, 'mechanical' ) ;
#155 = ORIENTED_EDGE ( 'NONE', *, *, #78, .F. ) ;
#156 = CYLINDRICAL_SURFACE ( 'NONE', #47, 20.00000000000000000 ) ;
#157 = COORDINATED_UNIVERSAL_TIME_OFFSET ( 5, 0, .BEHIND. ) ;
#158 = ORIENTED_EDGE ( 'NONE', *, *, #52, .F. ) ;
#159 = AXIS2_PLACEMENT_3D ( 'NONE', #12, #118, #28 ) ;
#160 = PERSON_AND_ORGANIZATION_ROLE ( 'design_owner' ) ;
#161 = PERSON_AND_ORGANIZATION_ROLE ( 'creator' ) ;
#162 = PRODUCT_DEFINITION ( 'UNKNOWN', '', #104, #7 ) ;
#163 = DIRECTION ( 'NONE',  ( -0.0000000000000000000, -0.0000000000000000000, -1.000000000000000000 ) ) ;
#164 = APPROVAL_DATE_TIME ( #151, #134 ) ;
#165 = CARTESIAN_POINT ( 'NONE',  ( -20.00000000000000000, 0.0000000000000000000, 3.000000000000000000 ) ) ;
#166 = FACE_OUTER_BOUND ( 'NONE', #6, .T. ) ;
#167 = PRODUCT_RELATED_PRODUCT_CATEGORY ( 'detail', '', ( #64 ) ) ;
#168 = COORDINATED_UNIVERSAL_TIME_OFFSET ( 5, 0, .BEHIND. ) ;
#169 = CARTESIAN_POINT ( 'NONE',  ( -20.00000000000000000, 0.0000000000000000000, 0.0000000000000000000 ) ) ;
#170 = AXIS2_PLACEMENT_3D ( 'NONE', #90, #73, #76 ) ;
#171 = CC_DESIGN_PERSON_AND_ORGANIZATION_ASSIGNMENT ( #175, #112, ( #104 ) ) ;
#172 = CALENDAR_DATE ( 2020, 7, 10 ) ;
#173 = APPROVAL_STATUS ( 'not_yet_approved' ) ;
#174 = ORIENTED_EDGE ( 'NONE', *, *, #70, .T. ) ;
#175 = PERSON_AND_ORGANIZATION ( #13, #100 ) ;
ENDSEC;
END-ISO-10303-21;
