ISO-10303-21;
HEADER;
FILE_DESCRIPTION (( 'STEP AP203' ),
    '1' );
FILE_NAME ('Web Model 47682_14826.step',
    '2020-10-07T17:23:41',
    ( '' ),
    ( '' ),
    'SwSTEP 2.0',
    'SolidWorks 2018',
    '' );
FILE_SCHEMA (( 'CONFIG_CONTROL_DESIGN' ));
ENDSEC;

DATA;
#1 = CARTESIAN_POINT ( 'NONE',  ( 0.0000000000000000000, 0.0000000000000000000, -1.000000000000000000 ) ) ;
#2 = PERSON_AND_ORGANIZATION_ROLE ( 'design_owner' ) ;
#3 = EDGE_LOOP ( 'NONE', ( #166, #134, #118, #61 ) ) ;
#4 = CYLINDRICAL_SURFACE ( 'NONE', #88, 6.250000000000000000 ) ;
#5 = DIRECTION ( 'NONE',  ( 0.0000000000000000000, 0.0000000000000000000, 1.000000000000000000 ) ) ;
#6 = AXIS2_PLACEMENT_3D ( 'NONE', #173, #17, #15 ) ;
#7 = VERTEX_POINT ( 'NONE', #117 ) ;
#8 = COORDINATED_UNIVERSAL_TIME_OFFSET ( 5, 0, .BEHIND. ) ;
#9 = ADVANCED_FACE ( 'NONE', ( #73 ), #128, .T. ) ;
#10 = COORDINATED_UNIVERSAL_TIME_OFFSET ( 5, 0, .BEHIND. ) ;
#11 = DIRECTION ( 'NONE',  ( 1.000000000000000000, 0.0000000000000000000, 0.0000000000000000000 ) ) ;
#12 = APPROVAL_DATE_TIME ( #40, #63 ) ;
#13 = CARTESIAN_POINT ( 'NONE',  ( 0.0000000000000000000, 0.0000000000000000000, -1.000000000000000000 ) ) ;
#14 = PERSON_AND_ORGANIZATION ( #172, #52 ) ;
#15 = DIRECTION ( 'NONE',  ( 1.000000000000000000, 0.0000000000000000000, 0.0000000000000000000 ) ) ;
#16 = VERTEX_POINT ( 'NONE', #139 ) ;
#17 = DIRECTION ( 'NONE',  ( 0.0000000000000000000, 0.0000000000000000000, 1.000000000000000000 ) ) ;
#18 = APPROVAL_STATUS ( 'not_yet_approved' ) ;
#19 = AXIS2_PLACEMENT_3D ( 'NONE', #29, #86, #28 ) ;
#20 = PERSON_AND_ORGANIZATION ( #172, #52 ) ;
#21 = CLOSED_SHELL ( 'NONE', ( #9, #162, #133, #25 ) ) ;
#22 = PRODUCT_DEFINITION_SHAPE ( 'NONE', 'NONE',  #99 ) ;
#23 = APPLICATION_CONTEXT ( 'configuration controlled 3d designs of mechanical parts and assemblies' ) ;
#24 = CARTESIAN_POINT ( 'NONE',  ( 0.0000000000000000000, 0.0000000000000000000, 1.000000000000000000 ) ) ;
#25 = ADVANCED_FACE ( 'NONE', ( #67 ), #171, .F. ) ;
#26 = EDGE_LOOP ( 'NONE', ( #80, #149 ) ) ;
#27 = AXIS2_PLACEMENT_3D ( 'NONE', #13, #107, #43 ) ;
#28 = DIRECTION ( 'NONE',  ( -1.000000000000000000, 0.0000000000000000000, 0.0000000000000000000 ) ) ;
#29 = CARTESIAN_POINT ( 'NONE',  ( 0.0000000000000000000, 0.0000000000000000000, 1.000000000000000000 ) ) ;
#30 = PERSON_AND_ORGANIZATION ( #172, #52 ) ;
#31 = CARTESIAN_POINT ( 'NONE',  ( 6.250000000000000000, 7.654042494670957606E-16, 1.000000000000000000 ) ) ;
#32 = DIRECTION ( 'NONE',  ( 1.000000000000000000, 0.0000000000000000000, 0.0000000000000000000 ) ) ;
#33 = CC_DESIGN_PERSON_AND_ORGANIZATION_ASSIGNMENT ( #103, #87, ( #99 ) ) ;
#34 = EDGE_CURVE ( 'NONE', #68, #16, #165, .T. ) ;
#35 = LOCAL_TIME ( 13, 23, 41.00000000000000000, #71 ) ;
#36 = DIRECTION ( 'NONE',  ( 0.0000000000000000000, 0.0000000000000000000, 1.000000000000000000 ) ) ;
#37 = LOCAL_TIME ( 13, 23, 41.00000000000000000, #84 ) ;
#38 = FACE_OUTER_BOUND ( 'NONE', #26, .T. ) ;
#39 = ORIENTED_EDGE ( 'NONE', *, *, #167, .F. ) ;
#40 = DATE_AND_TIME ( #75, #100 ) ;
#41 = AXIS2_PLACEMENT_3D ( 'NONE', #124, #50, #132 ) ;
#42 =( LENGTH_UNIT ( ) NAMED_UNIT ( * ) SI_UNIT ( .MILLI., .METRE. ) );
#43 = DIRECTION ( 'NONE',  ( 1.000000000000000000, 0.0000000000000000000, -0.0000000000000000000 ) ) ;
#44 = APPROVAL_STATUS ( 'not_yet_approved' ) ;
#45 = APPROVAL_ROLE ( '' ) ;
#46 = AXIS2_PLACEMENT_3D ( 'NONE', #108, #5, #93 ) ;
#47 = DATE_AND_TIME ( #135, #37 ) ;
#48 = APPROVAL_PERSON_ORGANIZATION ( #116, #122, #140 ) ;
#49 = APPLICATION_PROTOCOL_DEFINITION ( 'international standard', 'config_control_design', 1994, #23 ) ;
#50 = DIRECTION ( 'NONE',  ( 0.0000000000000000000, 0.0000000000000000000, 1.000000000000000000 ) ) ;
#51 = CALENDAR_DATE ( 2020, 7, 10 ) ;
#52 = ORGANIZATION ( 'UNSPECIFIED', 'UNSPECIFIED', '' ) ;
#53 = COORDINATED_UNIVERSAL_TIME_OFFSET ( 5, 0, .BEHIND. ) ;
#54 = SECURITY_CLASSIFICATION ( '', '', #59 ) ;
#55 = PRODUCT ( 'Web Model 47682_14826', 'Web Model 47682_14826', '', ( #106 ) ) ;
#56 =( NAMED_UNIT ( * ) PLANE_ANGLE_UNIT ( ) SI_UNIT ( $, .RADIAN. ) );
#57 = EDGE_CURVE ( 'NONE', #169, #68, #76, .T. ) ;
#58 = CARTESIAN_POINT ( 'NONE',  ( -6.250000000000000000, 0.0000000000000000000, 1.000000000000000000 ) ) ;
#59 = SECURITY_CLASSIFICATION_LEVEL ( 'unclassified' ) ;
#60 = APPROVAL_ROLE ( '' ) ;
#61 = ORIENTED_EDGE ( 'NONE', *, *, #62, .T. ) ;
#62 = EDGE_CURVE ( 'NONE', #16, #7, #123, .T. ) ;
#63 = APPROVAL ( #98, 'UNSPECIFIED' ) ;
#64 = AXIS2_PLACEMENT_3D ( 'NONE', #101, #145, #146 ) ;
#65 = APPROVAL_PERSON_ORGANIZATION ( #105, #63, #45 ) ;
#66 = MANIFOLD_SOLID_BREP ( 'Boss-Extrude1', #21 ) ;
#67 = FACE_OUTER_BOUND ( 'NONE', #129, .T. ) ;
#68 = VERTEX_POINT ( 'NONE', #58 ) ;
#69 = CC_DESIGN_PERSON_AND_ORGANIZATION_ASSIGNMENT ( #14, #2, ( #55 ) ) ;
#70 = CC_DESIGN_DATE_AND_TIME_ASSIGNMENT ( #47, #121, ( #54 ) ) ;
#71 = COORDINATED_UNIVERSAL_TIME_OFFSET ( 5, 0, .BEHIND. ) ;
#72 = PRODUCT_DEFINITION_FORMATION_WITH_SPECIFIED_SOURCE ( 'ANY', '', #55, .NOT_KNOWN. ) ;
#73 = FACE_OUTER_BOUND ( 'NONE', #142, .T. ) ;
#74 = DATE_TIME_ROLE ( 'creation_date' ) ;
#75 = CALENDAR_DATE ( 2020, 7, 10 ) ;
#76 = CIRCLE ( 'NONE', #41, 6.250000000000000000 ) ;
#77 = EDGE_CURVE ( 'NONE', #169, #7, #148, .T. ) ;
#78 = DIRECTION ( 'NONE',  ( -1.000000000000000000, 0.0000000000000000000, 0.0000000000000000000 ) ) ;
#79 = CC_DESIGN_APPROVAL ( #122, ( #99 ) ) ;
#80 = ORIENTED_EDGE ( 'NONE', *, *, #89, .T. ) ;
#81 = APPROVAL_DATE_TIME ( #95, #115 ) ;
#82 = CC_DESIGN_APPROVAL ( #63, ( #72 ) ) ;
#83 = ORIENTED_EDGE ( 'NONE', *, *, #167, .T. ) ;
#84 = COORDINATED_UNIVERSAL_TIME_OFFSET ( 5, 0, .BEHIND. ) ;
#85 = CC_DESIGN_PERSON_AND_ORGANIZATION_ASSIGNMENT ( #138, #110, ( #72 ) ) ;
#86 = DIRECTION ( 'NONE',  ( -0.0000000000000000000, -0.0000000000000000000, -1.000000000000000000 ) ) ;
#87 = PERSON_AND_ORGANIZATION_ROLE ( 'creator' ) ;
#88 = AXIS2_PLACEMENT_3D ( 'NONE', #24, #161, #78 ) ;
#89 = EDGE_CURVE ( 'NONE', #68, #169, #151, .T. ) ;
#90 = CALENDAR_DATE ( 2020, 7, 10 ) ;
#91 = ORIENTED_EDGE ( 'NONE', *, *, #34, .F. ) ;
#92 =( NAMED_UNIT ( * ) SI_UNIT ( $, .STERADIAN. ) SOLID_ANGLE_UNIT ( ) );
#93 = DIRECTION ( 'NONE',  ( 1.000000000000000000, 0.0000000000000000000, 0.0000000000000000000 ) ) ;
#94 = PERSON_AND_ORGANIZATION ( #172, #52 ) ;
#95 = DATE_AND_TIME ( #90, #125 ) ;
#96 = CC_DESIGN_DATE_AND_TIME_ASSIGNMENT ( #127, #74, ( #99 ) ) ;
#97 = APPLICATION_PROTOCOL_DEFINITION ( 'international standard', 'config_control_design', 1994, #119 ) ;
#98 = APPROVAL_STATUS ( 'not_yet_approved' ) ;
#99 = PRODUCT_DEFINITION ( 'UNKNOWN', '', #72, #163 ) ;
#100 = LOCAL_TIME ( 13, 23, 41.00000000000000000, #8 ) ;
#101 = CARTESIAN_POINT ( 'NONE',  ( 0.0000000000000000000, 0.0000000000000000000, 1.000000000000000000 ) ) ;
#102 = FACE_OUTER_BOUND ( 'NONE', #3, .T. ) ;
#103 = PERSON_AND_ORGANIZATION ( #172, #52 ) ;
#104 = ORIENTED_EDGE ( 'NONE', *, *, #77, .T. ) ;
#105 = PERSON_AND_ORGANIZATION ( #172, #52 ) ;
#106 = MECHANICAL_CONTEXT ( 'NONE', #23, 'mechanical' ) ;
#107 = DIRECTION ( 'NONE',  ( 0.0000000000000000000, 0.0000000000000000000, 1.000000000000000000 ) ) ;
#108 = CARTESIAN_POINT ( 'NONE',  ( 0.0000000000000000000, 0.0000000000000000000, 1.000000000000000000 ) ) ;
#109 = VECTOR ( 'NONE', #131, 1000.000000000000000 ) ;
#110 = PERSON_AND_ORGANIZATION_ROLE ( 'creator' ) ;
#111 = APPROVAL_DATE_TIME ( #143, #122 ) ;
#112 = AXIS2_PLACEMENT_3D ( 'NONE', #1, #153, #32 ) ;
#113 = LOCAL_TIME ( 13, 23, 41.00000000000000000, #10 ) ;
#114 = PLANE ( 'NONE',  #64 ) ;
#115 = APPROVAL ( #18, 'UNSPECIFIED' ) ;
#116 = PERSON_AND_ORGANIZATION ( #172, #52 ) ;
#117 = CARTESIAN_POINT ( 'NONE',  ( 6.250000000000000000, 7.654042494670957606E-16, -1.000000000000000000 ) ) ;
#118 = ORIENTED_EDGE ( 'NONE', *, *, #34, .T. ) ;
#119 = APPLICATION_CONTEXT ( 'configuration controlled 3d designs of mechanical parts and assemblies' ) ;
#120 = AXIS2_PLACEMENT_3D ( 'NONE', #160, #36, #11 ) ;
#121 = DATE_TIME_ROLE ( 'classification_date' ) ;
#122 = APPROVAL ( #44, 'UNSPECIFIED' ) ;
#123 = CIRCLE ( 'NONE', #6, 6.250000000000000000 ) ;
#124 = CARTESIAN_POINT ( 'NONE',  ( 0.0000000000000000000, 0.0000000000000000000, 1.000000000000000000 ) ) ;
#125 = LOCAL_TIME ( 13, 23, 41.00000000000000000, #53 ) ;
#126 = PRODUCT_RELATED_PRODUCT_CATEGORY ( 'detail', '', ( #55 ) ) ;
#127 = DATE_AND_TIME ( #157, #35 ) ;
#128 = CYLINDRICAL_SURFACE ( 'NONE', #19, 6.250000000000000000 ) ;
#129 = EDGE_LOOP ( 'NONE', ( #164, #39 ) ) ;
#130 = SHAPE_DEFINITION_REPRESENTATION ( #22, #158 ) ;
#131 = DIRECTION ( 'NONE',  ( -0.0000000000000000000, -0.0000000000000000000, -1.000000000000000000 ) ) ;
#132 = DIRECTION ( 'NONE',  ( 1.000000000000000000, 0.0000000000000000000, 0.0000000000000000000 ) ) ;
#133 = ADVANCED_FACE ( 'NONE', ( #38 ), #114, .T. ) ;
#134 = ORIENTED_EDGE ( 'NONE', *, *, #89, .F. ) ;
#135 = CALENDAR_DATE ( 2020, 7, 10 ) ;
#136 = ORIENTED_EDGE ( 'NONE', *, *, #57, .F. ) ;
#137 = CC_DESIGN_PERSON_AND_ORGANIZATION_ASSIGNMENT ( #30, #141, ( #72 ) ) ;
#138 = PERSON_AND_ORGANIZATION ( #172, #52 ) ;
#139 = CARTESIAN_POINT ( 'NONE',  ( -6.250000000000000000, 0.0000000000000000000, -1.000000000000000000 ) ) ;
#140 = APPROVAL_ROLE ( '' ) ;
#141 = PERSON_AND_ORGANIZATION_ROLE ( 'design_supplier' ) ;
#142 = EDGE_LOOP ( 'NONE', ( #136, #104, #83, #91 ) ) ;
#143 = DATE_AND_TIME ( #51, #113 ) ;
#144 = VECTOR ( 'NONE', #150, 1000.000000000000000 ) ;
#145 = DIRECTION ( 'NONE',  ( 0.0000000000000000000, 0.0000000000000000000, 1.000000000000000000 ) ) ;
#146 = DIRECTION ( 'NONE',  ( 1.000000000000000000, 0.0000000000000000000, -0.0000000000000000000 ) ) ;
#147 = CC_DESIGN_SECURITY_CLASSIFICATION ( #54, ( #72 ) ) ;
#148 = LINE ( 'NONE', #31, #144 ) ;
#149 = ORIENTED_EDGE ( 'NONE', *, *, #57, .T. ) ;
#150 = DIRECTION ( 'NONE',  ( -0.0000000000000000000, -0.0000000000000000000, -1.000000000000000000 ) ) ;
#151 = CIRCLE ( 'NONE', #46, 6.250000000000000000 ) ;
#152 = CARTESIAN_POINT ( 'NONE',  ( 6.250000000000000000, 7.654042494670957606E-16, 1.000000000000000000 ) ) ;
#153 = DIRECTION ( 'NONE',  ( 0.0000000000000000000, 0.0000000000000000000, 1.000000000000000000 ) ) ;
#154 = PERSON_AND_ORGANIZATION_ROLE ( 'classification_officer' ) ;
#155 = UNCERTAINTY_MEASURE_WITH_UNIT (LENGTH_MEASURE( 1.000000000000000082E-05 ), #42, 'distance_accuracy_value', 'NONE');
#156 = CC_DESIGN_PERSON_AND_ORGANIZATION_ASSIGNMENT ( #20, #154, ( #54 ) ) ;
#157 = CALENDAR_DATE ( 2020, 7, 10 ) ;
#158 = ADVANCED_BREP_SHAPE_REPRESENTATION ( 'Web Model 47682_14826', ( #66, #120 ), #174 ) ;
#159 = CARTESIAN_POINT ( 'NONE',  ( -6.250000000000000000, 0.0000000000000000000, 1.000000000000000000 ) ) ;
#160 = CARTESIAN_POINT ( 'NONE',  ( 0.0000000000000000000, 0.0000000000000000000, 0.0000000000000000000 ) ) ;
#161 = DIRECTION ( 'NONE',  ( -0.0000000000000000000, -0.0000000000000000000, -1.000000000000000000 ) ) ;
#162 = ADVANCED_FACE ( 'NONE', ( #102 ), #4, .T. ) ;
#163 = DESIGN_CONTEXT ( 'detailed design', #119, 'design' ) ;
#164 = ORIENTED_EDGE ( 'NONE', *, *, #62, .F. ) ;
#165 = LINE ( 'NONE', #159, #109 ) ;
#166 = ORIENTED_EDGE ( 'NONE', *, *, #77, .F. ) ;
#167 = EDGE_CURVE ( 'NONE', #7, #16, #175, .T. ) ;
#168 = CC_DESIGN_APPROVAL ( #115, ( #54 ) ) ;
#169 = VERTEX_POINT ( 'NONE', #152 ) ;
#170 = APPROVAL_PERSON_ORGANIZATION ( #94, #115, #60 ) ;
#171 = PLANE ( 'NONE',  #27 ) ;
#172 = PERSON ( 'UNSPECIFIED', 'UNSPECIFIED', 'UNSPECIFIED', ('UNSPECIFIED'), ('UNSPECIFIED'), ('UNSPECIFIED') ) ;
#173 = CARTESIAN_POINT ( 'NONE',  ( 0.0000000000000000000, 0.0000000000000000000, -1.000000000000000000 ) ) ;
#174 =( GEOMETRIC_REPRESENTATION_CONTEXT ( 3 ) GLOBAL_UNCERTAINTY_ASSIGNED_CONTEXT ( ( #155 ) ) GLOBAL_UNIT_ASSIGNED_CONTEXT ( ( #42, #56, #92 ) ) REPRESENTATION_CONTEXT ( 'NONE', 'WORKASPACE' ) );
#175 = CIRCLE ( 'NONE', #112, 6.250000000000000000 ) ;
ENDSEC;
END-ISO-10303-21;
