ISO-10303-21;
HEADER;
FILE_DESCRIPTION (( 'STEP AP203' ),
    '1' );
FILE_NAME ('Web Model 20464_20480.step',
    '2022-06-06T20:39:09',
    ( 'WC' ),
    ( 'Windows Central' ),
    'SwSTEP 2.0',
    'SolidWorks 2021',
    '' );
FILE_SCHEMA (( 'CONFIG_CONTROL_DESIGN' ));
ENDSEC;

DATA;
#1 = CALENDAR_DATE ( 2022, 6, 6 ) ;
#2 = EDGE_CURVE ( 'NONE', #127, #92, #50, .T. ) ;
#3 = APPROVAL_ROLE ( '' ) ;
#4 = VECTOR ( 'NONE', #64, 1000.000000000000000 ) ;
#5 = DIRECTION ( 'NONE',  ( 1.000000000000000000, 0.000000000000000000, 0.000000000000000000 ) ) ;
#6 = AXIS2_PLACEMENT_3D ( 'NONE', #53, #71, #131 ) ;
#7 = DIRECTION ( 'NONE',  ( -0.000000000000000000, -0.000000000000000000, -1.000000000000000000 ) ) ;
#8 = CYLINDRICAL_SURFACE ( 'NONE', #174, 5.000000000000000000 ) ;
#9 = ADVANCED_FACE ( 'NONE', ( #21 ), #157, .T. ) ;
#10 = DIRECTION ( 'NONE',  ( -0.000000000000000000, -0.000000000000000000, -1.000000000000000000 ) ) ;
#11 =( GEOMETRIC_REPRESENTATION_CONTEXT ( 3 ) GLOBAL_UNCERTAINTY_ASSIGNED_CONTEXT ( ( #122 ) ) GLOBAL_UNIT_ASSIGNED_CONTEXT ( ( #116, #160, #15 ) ) REPRESENTATION_CONTEXT ( 'NONE', 'WORKASPACE' ) );
#12 = CARTESIAN_POINT ( 'NONE',  ( 5.000000000000000000, 6.123233995736766282E-16, 1.000000000000000000 ) ) ;
#13 = PERSON_AND_ORGANIZATION ( #43, #32 ) ;
#14 = APPROVAL_STATUS ( 'not_yet_approved' ) ;
#15 =( NAMED_UNIT ( * ) SI_UNIT ( $, .STERADIAN. ) SOLID_ANGLE_UNIT ( ) );
#16 = PERSON_AND_ORGANIZATION ( #43, #32 ) ;
#17 = CARTESIAN_POINT ( 'NONE',  ( 0.000000000000000000, 0.000000000000000000, 1.000000000000000000 ) ) ;
#18 = DIRECTION ( 'NONE',  ( 1.000000000000000000, 0.000000000000000000, -0.000000000000000000 ) ) ;
#19 = CC_DESIGN_DATE_AND_TIME_ASSIGNMENT ( #164, #41, ( #91 ) ) ;
#20 = ORIENTED_EDGE ( 'NONE', *, *, #151, .T. ) ;
#21 = FACE_OUTER_BOUND ( 'NONE', #125, .T. ) ;
#22 = CARTESIAN_POINT ( 'NONE',  ( -5.000000000000000000, 0.000000000000000000, 1.000000000000000000 ) ) ;
#23 = CC_DESIGN_PERSON_AND_ORGANIZATION_ASSIGNMENT ( #82, #44, ( #162 ) ) ;
#24 = DATE_AND_TIME ( #96, #168 ) ;
#25 = APPLICATION_CONTEXT ( 'configuration controlled 3d designs of mechanical parts and assemblies' ) ;
#26 = PERSON_AND_ORGANIZATION ( #43, #32 ) ;
#27 = PERSON_AND_ORGANIZATION ( #43, #32 ) ;
#28 = SECURITY_CLASSIFICATION_LEVEL ( 'unclassified' ) ;
#29 = PERSON_AND_ORGANIZATION ( #43, #32 ) ;
#30 = AXIS2_PLACEMENT_3D ( 'NONE', #63, #76, #150 ) ;
#31 = DIRECTION ( 'NONE',  ( 0.000000000000000000, 0.000000000000000000, 1.000000000000000000 ) ) ;
#32 = ORGANIZATION ( 'UNSPECIFIED', 'UNSPECIFIED', '' ) ;
#33 = EDGE_CURVE ( 'NONE', #158, #62, #35, .T. ) ;
#34 = ORIENTED_EDGE ( 'NONE', *, *, #33, .F. ) ;
#35 = LINE ( 'NONE', #22, #166 ) ;
#36 = CARTESIAN_POINT ( 'NONE',  ( 0.000000000000000000, 0.000000000000000000, 0.000000000000000000 ) ) ;
#37 = DIRECTION ( 'NONE',  ( 0.000000000000000000, 0.000000000000000000, 1.000000000000000000 ) ) ;
#38 = CIRCLE ( 'NONE', #159, 5.000000000000000000 ) ;
#39 = APPLICATION_PROTOCOL_DEFINITION ( 'international standard', 'config_control_design', 1994, #78 ) ;
#40 = ADVANCED_FACE ( 'NONE', ( #89 ), #8, .T. ) ;
#41 = DATE_TIME_ROLE ( 'creation_date' ) ;
#42 = LOCAL_TIME ( 16, 39, 9.000000000000000000, #133 ) ;
#43 = PERSON ( 'UNSPECIFIED', 'UNSPECIFIED', 'UNSPECIFIED', ('UNSPECIFIED'), ('UNSPECIFIED'), ('UNSPECIFIED') ) ;
#44 = PERSON_AND_ORGANIZATION_ROLE ( 'classification_officer' ) ;
#45 = CALENDAR_DATE ( 2022, 6, 6 ) ;
#46 = LOCAL_TIME ( 16, 39, 9.000000000000000000, #145 ) ;
#47 = CC_DESIGN_PERSON_AND_ORGANIZATION_ASSIGNMENT ( #13, #52, ( #91 ) ) ;
#48 = CARTESIAN_POINT ( 'NONE',  ( 0.000000000000000000, 0.000000000000000000, 1.000000000000000000 ) ) ;
#49 = APPROVAL_PERSON_ORGANIZATION ( #29, #124, #3 ) ;
#50 = LINE ( 'NONE', #12, #4 ) ;
#51 = CLOSED_SHELL ( 'NONE', ( #167, #40, #9, #140 ) ) ;
#52 = PERSON_AND_ORGANIZATION_ROLE ( 'creator' ) ;
#53 = CARTESIAN_POINT ( 'NONE',  ( 0.000000000000000000, 0.000000000000000000, 0.000000000000000000 ) ) ;
#54 = DATE_AND_TIME ( #1, #123 ) ;
#55 = AXIS2_PLACEMENT_3D ( 'NONE', #126, #37, #18 ) ;
#56 = DESIGN_CONTEXT ( 'detailed design', #25, 'design' ) ;
#57 = FACE_OUTER_BOUND ( 'NONE', #142, .T. ) ;
#58 = CARTESIAN_POINT ( 'NONE',  ( 5.000000000000000000, 6.123233995736766282E-16, 1.000000000000000000 ) ) ;
#59 = DIRECTION ( 'NONE',  ( 0.000000000000000000, 0.000000000000000000, 1.000000000000000000 ) ) ;
#60 = FACE_OUTER_BOUND ( 'NONE', #90, .T. ) ;
#61 = CC_DESIGN_PERSON_AND_ORGANIZATION_ASSIGNMENT ( #95, #73, ( #72 ) ) ;
#62 = VERTEX_POINT ( 'NONE', #172 ) ;
#63 = CARTESIAN_POINT ( 'NONE',  ( 0.000000000000000000, 0.000000000000000000, 0.000000000000000000 ) ) ;
#64 = DIRECTION ( 'NONE',  ( -0.000000000000000000, -0.000000000000000000, -1.000000000000000000 ) ) ;
#65 = DIRECTION ( 'NONE',  ( -1.000000000000000000, 0.000000000000000000, 0.000000000000000000 ) ) ;
#66 = AXIS2_PLACEMENT_3D ( 'NONE', #17, #31, #5 ) ;
#67 = ORIENTED_EDGE ( 'NONE', *, *, #151, .F. ) ;
#68 = PERSON_AND_ORGANIZATION ( #43, #32 ) ;
#69 = APPROVAL_DATE_TIME ( #54, #104 ) ;
#70 = MECHANICAL_CONTEXT ( 'NONE', #78, 'mechanical' ) ;
#71 = DIRECTION ( 'NONE',  ( 0.000000000000000000, 0.000000000000000000, 1.000000000000000000 ) ) ;
#72 = PRODUCT_DEFINITION_FORMATION_WITH_SPECIFIED_SOURCE ( 'ANY', '', #175, .NOT_KNOWN. ) ;
#73 = PERSON_AND_ORGANIZATION_ROLE ( 'design_supplier' ) ;
#74 = CC_DESIGN_PERSON_AND_ORGANIZATION_ASSIGNMENT ( #16, #146, ( #72 ) ) ;
#75 = SHAPE_DEFINITION_REPRESENTATION ( #115, #152 ) ;
#76 = DIRECTION ( 'NONE',  ( 0.000000000000000000, 0.000000000000000000, 1.000000000000000000 ) ) ;
#77 = ORIENTED_EDGE ( 'NONE', *, *, #33, .T. ) ;
#78 = APPLICATION_CONTEXT ( 'configuration controlled 3d designs of mechanical parts and assemblies' ) ;
#79 = EDGE_LOOP ( 'NONE', ( #87, #100, #77, #111 ) ) ;
#80 = CARTESIAN_POINT ( 'NONE',  ( 5.000000000000000000, 6.123233995736766282E-16, 0.000000000000000000 ) ) ;
#81 = COORDINATED_UNIVERSAL_TIME_OFFSET ( 5, 0, .BEHIND. ) ;
#82 = PERSON_AND_ORGANIZATION ( #43, #32 ) ;
#83 = APPROVAL_STATUS ( 'not_yet_approved' ) ;
#84 = CC_DESIGN_APPROVAL ( #124, ( #162 ) ) ;
#85 = EDGE_CURVE ( 'NONE', #62, #92, #154, .T. ) ;
#86 = CARTESIAN_POINT ( 'NONE',  ( -5.000000000000000000, 0.000000000000000000, 1.000000000000000000 ) ) ;
#87 = ORIENTED_EDGE ( 'NONE', *, *, #2, .F. ) ;
#88 = CARTESIAN_POINT ( 'NONE',  ( 0.000000000000000000, 0.000000000000000000, 0.000000000000000000 ) ) ;
#89 = FACE_OUTER_BOUND ( 'NONE', #79, .T. ) ;
#90 = EDGE_LOOP ( 'NONE', ( #173, #67 ) ) ;
#91 = PRODUCT_DEFINITION ( 'UNKNOWN', '', #72, #56 ) ;
#92 = VERTEX_POINT ( 'NONE', #80 ) ;
#93 = CIRCLE ( 'NONE', #66, 5.000000000000000000 ) ;
#94 = APPROVAL_ROLE ( '' ) ;
#95 = PERSON_AND_ORGANIZATION ( #43, #32 ) ;
#96 = CALENDAR_DATE ( 2022, 6, 6 ) ;
#97 = DATE_AND_TIME ( #45, #42 ) ;
#98 = CIRCLE ( 'NONE', #30, 5.000000000000000000 ) ;
#99 = ORIENTED_EDGE ( 'NONE', *, *, #2, .T. ) ;
#100 = ORIENTED_EDGE ( 'NONE', *, *, #117, .F. ) ;
#101 = ORIENTED_EDGE ( 'NONE', *, *, #129, .T. ) ;
#102 = DIRECTION ( 'NONE',  ( 0.000000000000000000, 0.000000000000000000, 1.000000000000000000 ) ) ;
#103 = COORDINATED_UNIVERSAL_TIME_OFFSET ( 5, 0, .BEHIND. ) ;
#104 = APPROVAL ( #130, 'UNSPECIFIED' ) ;
#105 = CC_DESIGN_APPROVAL ( #149, ( #72 ) ) ;
#106 = CALENDAR_DATE ( 2022, 6, 6 ) ;
#107 = DATE_AND_TIME ( #163, #46 ) ;
#108 = MANIFOLD_SOLID_BREP ( 'Boss-Extrude1', #51 ) ;
#109 = AXIS2_PLACEMENT_3D ( 'NONE', #137, #7, #135 ) ;
#110 = CYLINDRICAL_SURFACE ( 'NONE', #109, 5.000000000000000000 ) ;
#111 = ORIENTED_EDGE ( 'NONE', *, *, #85, .T. ) ;
#112 = CARTESIAN_POINT ( 'NONE',  ( 0.000000000000000000, 0.000000000000000000, 1.000000000000000000 ) ) ;
#113 = DIRECTION ( 'NONE',  ( 1.000000000000000000, 0.000000000000000000, 0.000000000000000000 ) ) ;
#114 = CC_DESIGN_APPROVAL ( #104, ( #91 ) ) ;
#115 = PRODUCT_DEFINITION_SHAPE ( 'NONE', 'NONE',  #91 ) ;
#116 =( LENGTH_UNIT ( ) NAMED_UNIT ( * ) SI_UNIT ( .MILLI., .METRE. ) );
#117 = EDGE_CURVE ( 'NONE', #158, #127, #93, .T. ) ;
#118 = PERSON_AND_ORGANIZATION_ROLE ( 'design_owner' ) ;
#119 = AXIS2_PLACEMENT_3D ( 'NONE', #36, #102, #113 ) ;
#120 = PRODUCT_RELATED_PRODUCT_CATEGORY ( 'detail', '', ( #175 ) ) ;
#121 = DATE_TIME_ROLE ( 'classification_date' ) ;
#122 = UNCERTAINTY_MEASURE_WITH_UNIT (LENGTH_MEASURE( 1.000000000000000082E-05 ), #116, 'distance_accuracy_value', 'NONE');
#123 = LOCAL_TIME ( 16, 39, 9.000000000000000000, #81 ) ;
#124 = APPROVAL ( #83, 'UNSPECIFIED' ) ;
#125 = EDGE_LOOP ( 'NONE', ( #156, #101 ) ) ;
#126 = CARTESIAN_POINT ( 'NONE',  ( 0.000000000000000000, 0.000000000000000000, 1.000000000000000000 ) ) ;
#127 = VERTEX_POINT ( 'NONE', #58 ) ;
#128 = AXIS2_PLACEMENT_3D ( 'NONE', #88, #59, #136 ) ;
#129 = EDGE_CURVE ( 'NONE', #127, #158, #38, .T. ) ;
#130 = APPROVAL_STATUS ( 'not_yet_approved' ) ;
#131 = DIRECTION ( 'NONE',  ( 1.000000000000000000, 0.000000000000000000, 0.000000000000000000 ) ) ;
#132 = LOCAL_TIME ( 16, 39, 9.000000000000000000, #103 ) ;
#133 = COORDINATED_UNIVERSAL_TIME_OFFSET ( 5, 0, .BEHIND. ) ;
#134 = DIRECTION ( 'NONE',  ( 1.000000000000000000, 0.000000000000000000, 0.000000000000000000 ) ) ;
#135 = DIRECTION ( 'NONE',  ( -1.000000000000000000, 0.000000000000000000, 0.000000000000000000 ) ) ;
#136 = DIRECTION ( 'NONE',  ( 1.000000000000000000, 0.000000000000000000, -0.000000000000000000 ) ) ;
#137 = CARTESIAN_POINT ( 'NONE',  ( 0.000000000000000000, 0.000000000000000000, 1.000000000000000000 ) ) ;
#138 = ORIENTED_EDGE ( 'NONE', *, *, #129, .F. ) ;
#139 = DIRECTION ( 'NONE',  ( -0.000000000000000000, -0.000000000000000000, -1.000000000000000000 ) ) ;
#140 = ADVANCED_FACE ( 'NONE', ( #60 ), #155, .F. ) ;
#141 = APPROVAL_PERSON_ORGANIZATION ( #26, #104, #161 ) ;
#142 = EDGE_LOOP ( 'NONE', ( #138, #99, #20, #34 ) ) ;
#143 = APPLICATION_PROTOCOL_DEFINITION ( 'international standard', 'config_control_design', 1994, #25 ) ;
#144 = CC_DESIGN_SECURITY_CLASSIFICATION ( #162, ( #72 ) ) ;
#145 = COORDINATED_UNIVERSAL_TIME_OFFSET ( 5, 0, .BEHIND. ) ;
#146 = PERSON_AND_ORGANIZATION_ROLE ( 'creator' ) ;
#147 = APPROVAL_DATE_TIME ( #107, #149 ) ;
#148 = APPROVAL_PERSON_ORGANIZATION ( #68, #149, #94 ) ;
#149 = APPROVAL ( #14, 'UNSPECIFIED' ) ;
#150 = DIRECTION ( 'NONE',  ( 1.000000000000000000, 0.000000000000000000, 0.000000000000000000 ) ) ;
#151 = EDGE_CURVE ( 'NONE', #92, #62, #98, .T. ) ;
#152 = ADVANCED_BREP_SHAPE_REPRESENTATION ( 'Web Model 20464_20480', ( #108, #6 ), #11 ) ;
#153 = DIRECTION ( 'NONE',  ( 0.000000000000000000, 0.000000000000000000, 1.000000000000000000 ) ) ;
#154 = CIRCLE ( 'NONE', #119, 5.000000000000000000 ) ;
#155 = PLANE ( 'NONE',  #128 ) ;
#156 = ORIENTED_EDGE ( 'NONE', *, *, #117, .T. ) ;
#157 = PLANE ( 'NONE',  #55 ) ;
#158 = VERTEX_POINT ( 'NONE', #86 ) ;
#159 = AXIS2_PLACEMENT_3D ( 'NONE', #48, #153, #134 ) ;
#160 =( NAMED_UNIT ( * ) PLANE_ANGLE_UNIT ( ) SI_UNIT ( $, .RADIAN. ) );
#161 = APPROVAL_ROLE ( '' ) ;
#162 = SECURITY_CLASSIFICATION ( '', '', #28 ) ;
#163 = CALENDAR_DATE ( 2022, 6, 6 ) ;
#164 = DATE_AND_TIME ( #106, #132 ) ;
#165 = COORDINATED_UNIVERSAL_TIME_OFFSET ( 5, 0, .BEHIND. ) ;
#166 = VECTOR ( 'NONE', #139, 1000.000000000000000 ) ;
#167 = ADVANCED_FACE ( 'NONE', ( #57 ), #110, .T. ) ;
#168 = LOCAL_TIME ( 16, 39, 9.000000000000000000, #165 ) ;
#169 = APPROVAL_DATE_TIME ( #97, #124 ) ;
#170 = CC_DESIGN_DATE_AND_TIME_ASSIGNMENT ( #24, #121, ( #162 ) ) ;
#171 = CC_DESIGN_PERSON_AND_ORGANIZATION_ASSIGNMENT ( #27, #118, ( #175 ) ) ;
#172 = CARTESIAN_POINT ( 'NONE',  ( -5.000000000000000000, 0.000000000000000000, 0.000000000000000000 ) ) ;
#173 = ORIENTED_EDGE ( 'NONE', *, *, #85, .F. ) ;
#174 = AXIS2_PLACEMENT_3D ( 'NONE', #112, #10, #65 ) ;
#175 = PRODUCT ( 'Web Model 20464_20480', 'Web Model 20464_20480', '', ( #70 ) ) ;
ENDSEC;
END-ISO-10303-21;
