ISO-10303-21;
HEADER;
FILE_DESCRIPTION (( 'STEP AP203' ),
    '1' );
FILE_NAME ('25025-E0W.STEP',
    '2012-09-28T16:28:04',
    ( 'Admin' ),
    ( 'Thorlabs, Inc.' ),
    'SwSTEP 2.0',
    'SolidWorks 2011',
    '' );
FILE_SCHEMA (( 'CONFIG_CONTROL_DESIGN' ));
ENDSEC;

DATA;
#1 = VERTEX_POINT ( 'NONE', #180 ) ;
#2 = EDGE_CURVE ( 'NONE', #68, #1, #211, .T. ) ;
#3 = EDGE_LOOP ( 'NONE', ( #7, #12, #35, #27 ) ) ;
#4 = ORIENTED_EDGE ( 'NONE', *, *, #9, .F. ) ;
#5 = EDGE_CURVE ( 'NONE', #1, #71, #98, .T. ) ;
#6 = ORIENTED_EDGE ( 'NONE', *, *, #2, .T. ) ;
#7 = ORIENTED_EDGE ( 'NONE', *, *, #11, .T. ) ;
#8 = EDGE_LOOP ( 'NONE', ( #4, #6, #13, #15 ) ) ;
#9 = EDGE_CURVE ( 'NONE', #68, #69, #181, .T. ) ;
#10 = ADVANCED_FACE ( 'NONE', ( #117 ), #87, .T. ) ;
#11 = EDGE_CURVE ( 'NONE', #72, #14, #114, .T. ) ;
#12 = ORIENTED_EDGE ( 'NONE', *, *, #28, .T. ) ;
#13 = ORIENTED_EDGE ( 'NONE', *, *, #5, .T. ) ;
#14 = VERTEX_POINT ( 'NONE', #103 ) ;
#15 = ORIENTED_EDGE ( 'NONE', *, *, #16, .F. ) ;
#16 = EDGE_CURVE ( 'NONE', #69, #71, #213, .T. ) ;
#17 = MECHANICAL_CONTEXT ( 'NONE', #20, 'mechanical' ) ;
#18 = PRODUCT ( '25025-E0W', '25025-E0W', '', ( #17 ) ) ;
#19 = APPLICATION_PROTOCOL_DEFINITION ( 'international standard', 'config_control_design', 1994, #20 ) ;
#20 = APPLICATION_CONTEXT ( 'configuration controlled 3d designs of mechanical parts and assemblies' ) ;
#21 = APPROVAL_DATE_TIME ( #245, #251 ) ;
#22 = PERSON ( 'UNSPECIFIED', 'UNSPECIFIED', 'UNSPECIFIED', ('UNSPECIFIED'), ('UNSPECIFIED'), ('UNSPECIFIED') ) ;
#23 = CC_DESIGN_APPROVAL ( #251, ( #263 ) ) ;
#24 = EDGE_CURVE ( 'NONE', #38, #39, #118, .T. ) ;
#25 = ORIENTED_EDGE ( 'NONE', *, *, #40, .T. ) ;
#26 = ORIENTED_EDGE ( 'NONE', *, *, #24, .T. ) ;
#27 = ORIENTED_EDGE ( 'NONE', *, *, #36, .F. ) ;
#28 = EDGE_CURVE ( 'NONE', #14, #71, #193, .T. ) ;
#29 = ADVANCED_FACE ( 'NONE', ( #120 ), #99, .T. ) ;
#30 = ORIENTED_EDGE ( 'NONE', *, *, #76, .F. ) ;
#31 = EDGE_LOOP ( 'NONE', ( #46, #30, #75, #77 ) ) ;
#32 = CLOSED_SHELL ( 'NONE', ( #70, #10, #29, #67, #56, #49, #43, #83, #82 ) ) ;
#33 = MANIFOLD_SOLID_BREP ( '25025-001-1-solid1', #32 ) ;
#34 = EDGE_LOOP ( 'NONE', ( #26, #25, #64, #63 ) ) ;
#35 = ORIENTED_EDGE ( 'NONE', *, *, #5, .F. ) ;
#36 = EDGE_CURVE ( 'NONE', #72, #1, #174, .T. ) ;
#37 = ORIENTED_EDGE ( 'NONE', *, *, #61, .T. ) ;
#38 = VERTEX_POINT ( 'NONE', #208 ) ;
#39 = VERTEX_POINT ( 'NONE', #207 ) ;
#40 = EDGE_CURVE ( 'NONE', #39, #14, #177, .T. ) ;
#41 = ORIENTED_EDGE ( 'NONE', *, *, #53, .F. ) ;
#42 = ORIENTED_EDGE ( 'NONE', *, *, #28, .F. ) ;
#43 = ADVANCED_FACE ( 'NONE', ( #175 ), #182, .T. ) ;
#44 = EDGE_LOOP ( 'NONE', ( #42, #79, #78, #84 ) ) ;
#45 = ORIENTED_EDGE ( 'NONE', *, *, #47, .F. ) ;
#46 = ORIENTED_EDGE ( 'NONE', *, *, #2, .F. ) ;
#47 = EDGE_CURVE ( 'NONE', #14, #72, #194, .T. ) ;
#48 = ORIENTED_EDGE ( 'NONE', *, *, #65, .T. ) ;
#49 = ADVANCED_FACE ( 'NONE', ( #189 ), #91, .T. ) ;
#50 = ORIENTED_EDGE ( 'NONE', *, *, #53, .T. ) ;
#51 = ORIENTED_EDGE ( 'NONE', *, *, #40, .F. ) ;
#52 = EDGE_LOOP ( 'NONE', ( #51, #50, #48, #45 ) ) ;
#53 = EDGE_CURVE ( 'NONE', #39, #38, #183, .T. ) ;
#54 = EDGE_LOOP ( 'NONE', ( #58, #62, #37 ) ) ;
#55 = EDGE_CURVE ( 'NONE', #39, #59, #146, .T. ) ;
#56 = ADVANCED_FACE ( 'NONE', ( #96 ), #185, .F. ) ;
#57 = ORIENTED_EDGE ( 'NONE', *, *, #61, .F. ) ;
#58 = ORIENTED_EDGE ( 'NONE', *, *, #55, .F. ) ;
#59 = VERTEX_POINT ( 'NONE', #137 ) ;
#60 = ORIENTED_EDGE ( 'NONE', *, *, #55, .T. ) ;
#61 = EDGE_CURVE ( 'NONE', #38, #59, #171, .T. ) ;
#62 = ORIENTED_EDGE ( 'NONE', *, *, #24, .F. ) ;
#63 = ORIENTED_EDGE ( 'NONE', *, *, #65, .F. ) ;
#64 = ORIENTED_EDGE ( 'NONE', *, *, #11, .F. ) ;
#65 = EDGE_CURVE ( 'NONE', #38, #72, #131, .T. ) ;
#66 = EDGE_LOOP ( 'NONE', ( #41, #60, #57 ) ) ;
#67 = ADVANCED_FACE ( 'NONE', ( #130 ), #134, .F. ) ;
#68 = VERTEX_POINT ( 'NONE', #151 ) ;
#69 = VERTEX_POINT ( 'NONE', #156 ) ;
#70 = ADVANCED_FACE ( 'NONE', ( #149 ), #94, .T. ) ;
#71 = VERTEX_POINT ( 'NONE', #150 ) ;
#72 = VERTEX_POINT ( 'NONE', #153 ) ;
#73 = ORIENTED_EDGE ( 'NONE', *, *, #76, .T. ) ;
#74 = ORIENTED_EDGE ( 'NONE', *, *, #9, .T. ) ;
#75 = ORIENTED_EDGE ( 'NONE', *, *, #16, .T. ) ;
#76 = EDGE_CURVE ( 'NONE', #69, #68, #229, .T. ) ;
#77 = ORIENTED_EDGE ( 'NONE', *, *, #80, .T. ) ;
#78 = ORIENTED_EDGE ( 'NONE', *, *, #36, .T. ) ;
#79 = ORIENTED_EDGE ( 'NONE', *, *, #47, .T. ) ;
#80 = EDGE_CURVE ( 'NONE', #71, #1, #222, .T. ) ;
#81 = EDGE_LOOP ( 'NONE', ( #73, #74 ) ) ;
#82 = ADVANCED_FACE ( 'NONE', ( #217 ), #230, .T. ) ;
#83 = ADVANCED_FACE ( 'NONE', ( #223 ), #157, .T. ) ;
#84 = ORIENTED_EDGE ( 'NONE', *, *, #80, .F. ) ;
#85 = DIRECTION ( 'NONE',  ( 0.0000000000000000000, 0.0000000000000000000, 1.000000000000000000 ) ) ;
#86 = DIRECTION ( 'NONE',  ( 1.000000000000000000, 0.0000000000000000000, 0.0000000000000000000 ) ) ;
#87 = CYLINDRICAL_SURFACE ( 'NONE', #190, 12.69999999999999900 ) ;
#88 = CARTESIAN_POINT ( 'NONE',  ( 0.0000000000000000000, -1.649431272718333700E-015, 9.438255012321221200 ) ) ;
#89 = DIRECTION ( 'NONE',  ( -0.0000000000000000000, 3.061616997868382600E-016, -1.000000000000000000 ) ) ;
#90 = AXIS2_PLACEMENT_3D ( 'NONE', #212, #116, #164 ) ;
#91 = CONICAL_SURFACE ( 'NONE', #204, 12.70000000000000100, 0.7853981633975587500 ) ;
#92 = DIRECTION ( 'NONE',  ( 0.0000000000000000000, 1.000000000000000000, 2.731847993664262700E-016 ) ) ;
#93 = DIRECTION ( 'NONE',  ( -0.0000000000000000000, 3.061616997868382600E-016, -1.000000000000000000 ) ) ;
#94 = CONICAL_SURFACE ( 'NONE', #147, 12.55857864376268800, 0.7853981633974490600 ) ;
#95 = CARTESIAN_POINT ( 'NONE',  ( 0.0000000000000000000, -1.649431272718333700E-015, 9.438255012321221200 ) ) ;
#96 = FACE_OUTER_BOUND ( 'NONE', #54, .T. ) ;
#97 = DIRECTION ( 'NONE',  ( 0.0000000000000000000, 1.000000000000000000, 3.073328992872296400E-016 ) ) ;
#98 = CIRCLE ( 'NONE', #90, 12.69999999999999800 ) ;
#99 = CONICAL_SURFACE ( 'NONE', #172, 12.70000000000000100, 0.7853981633975587500 ) ;
#100 = CARTESIAN_POINT ( 'NONE',  ( 0.0000000000000000000, 1.699443474555834900E-015, -1.500000000000000000 ) ) ;
#101 = DIRECTION ( 'NONE',  ( -0.0000000000000000000, 3.061616997868382600E-016, -1.000000000000000000 ) ) ;
#102 = AXIS2_PLACEMENT_3D ( 'NONE', #88, #101, #214 ) ;
#103 = CARTESIAN_POINT ( 'NONE',  ( 1.555301434917138600E-015, -12.70000000000000300, 9.438255012321217700 ) ) ;
#104 = DIRECTION ( 'NONE',  ( 0.0000000000000000000, -0.7071067811865483500, 0.7071067811865468000 ) ) ;
#105 = VECTOR ( 'NONE', #104, 999.9999999999998900 ) ;
#106 = CARTESIAN_POINT ( 'NONE',  ( 0.0000000000000000000, -12.55857864376268700, -1.500000000000005600 ) ) ;
#107 = DIRECTION ( 'NONE',  ( 0.0000000000000000000, -1.000000000000000000, -3.107937555406665100E-016 ) ) ;
#108 = CARTESIAN_POINT ( 'NONE',  ( 0.0000000000000000000, 0.0000000000000000000, 0.0000000000000000000 ) ) ;
#109 =( LENGTH_UNIT ( ) NAMED_UNIT ( * ) SI_UNIT ( .MILLI., .METRE. ) );
#110 = DIRECTION ( 'NONE',  ( 0.0000000000000000000, 1.000000000000000000, 3.061616997868382600E-016 ) ) ;
#111 = DIRECTION ( 'NONE',  ( -0.0000000000000000000, 3.061616997868382600E-016, -1.000000000000000000 ) ) ;
#112 = DIRECTION ( 'NONE',  ( 0.0000000000000000000, 1.000000000000000000, 3.073328992872296400E-016 ) ) ;
#113 = CARTESIAN_POINT ( 'NONE',  ( 1.555301434917138400E-015, -12.69999999999999800, -1.500000000000004000 ) ) ;
#114 = CIRCLE ( 'NONE', #102, 12.70000000000000100 ) ;
#115 = VECTOR ( 'NONE', #200, 999.9999999999998900 ) ;
#116 = DIRECTION ( 'NONE',  ( -0.0000000000000000000, 3.061616997868382600E-016, -1.000000000000000000 ) ) ;
#117 = FACE_OUTER_BOUND ( 'NONE', #3, .T. ) ;
#118 = CIRCLE ( 'NONE', #199, 12.55857864376269200 ) ;
#119 = CARTESIAN_POINT ( 'NONE',  ( 0.0000000000000000000, -1.649431272718333700E-015, 9.438255012321221200 ) ) ;
#120 = FACE_OUTER_BOUND ( 'NONE', #34, .T. ) ;
#121 = DIRECTION ( 'NONE',  ( -0.0000000000000000000, 3.061616997868382600E-016, -1.000000000000000000 ) ) ;
#122 = AXIS2_PLACEMENT_3D ( 'NONE', #108, #85, #86 ) ;
#123 = ADVANCED_BREP_SHAPE_REPRESENTATION ( '25025-E0W', ( #33, #122 ), #124 ) ;
#124 =( GEOMETRIC_REPRESENTATION_CONTEXT ( 3 ) GLOBAL_UNCERTAINTY_ASSIGNED_CONTEXT ( ( #125 ) ) GLOBAL_UNIT_ASSIGNED_CONTEXT ( ( #109, #127, #126 ) ) REPRESENTATION_CONTEXT ( 'NONE', 'WORKASPACE' ) );
#125 = UNCERTAINTY_MEASURE_WITH_UNIT (LENGTH_MEASURE( 1.000000000000000100E-005 ), #109, 'distance_accuracy_value', 'NONE');
#126 =( NAMED_UNIT ( * ) SI_UNIT ( $, .STERADIAN. ) SOLID_ANGLE_UNIT ( ) );
#127 =( NAMED_UNIT ( * ) PLANE_ANGLE_UNIT ( ) SI_UNIT ( $, .RADIAN. ) );
#128 = CARTESIAN_POINT ( 'NONE',  ( 0.0000000000000000000, 1.072509038427183100E-014, 15.30000000000000800 ) ) ;
#129 = CARTESIAN_POINT ( 'NONE',  ( 0.0000000000000000000, 1.072509038427183100E-014, 15.30000000000000800 ) ) ;
#130 = FACE_OUTER_BOUND ( 'NONE', #66, .T. ) ;
#131 = LINE ( 'NONE', #160, #159 ) ;
#132 = DIRECTION ( 'NONE',  ( -1.224646799147353200E-016, 1.000000000000000000, 0.0000000000000000000 ) ) ;
#133 = DIRECTION ( 'NONE',  ( 1.000000000000000000, 1.224646799147353200E-016, 3.749399456654643500E-032 ) ) ;
#134 = SPHERICAL_SURFACE ( 'NONE', #165, 13.80000000000000600 ) ;
#135 = DIRECTION ( 'NONE',  ( 1.000000000000000000, 0.0000000000000000000, -0.0000000000000000000 ) ) ;
#136 = CARTESIAN_POINT ( 'NONE',  ( 0.0000000000000000000, 1.072509038427183100E-014, 15.30000000000000800 ) ) ;
#137 = CARTESIAN_POINT ( 'NONE',  ( 0.0000000000000000000, 1.579512813274187600E-014, 1.500000000000001300 ) ) ;
#138 = AXIS2_PLACEMENT_3D ( 'NONE', #184, #133, #132 ) ;
#139 = DIRECTION ( 'NONE',  ( 0.0000000000000000000, 1.000000000000000000, 2.762611160361479200E-016 ) ) ;
#140 = DIRECTION ( 'NONE',  ( -0.0000000000000000000, 3.061616997868382600E-016, -1.000000000000000000 ) ) ;
#141 = CARTESIAN_POINT ( 'NONE',  ( 0.0000000000000000000, -1.692729075530098900E-015, 9.579676368558500200 ) ) ;
#142 = AXIS2_PLACEMENT_3D ( 'NONE', #141, #140, #139 ) ;
#143 = AXIS2_PLACEMENT_3D ( 'NONE', #136, #135, #170 ) ;
#144 = DIRECTION ( 'NONE',  ( 0.0000000000000000000, 1.000000000000000000, 2.731847993664262700E-016 ) ) ;
#145 = DIRECTION ( 'NONE',  ( -0.0000000000000000000, 3.061616997868382600E-016, -1.000000000000000000 ) ) ;
#146 = CIRCLE ( 'NONE', #138, 13.80000000000000600 ) ;
#147 = AXIS2_PLACEMENT_3D ( 'NONE', #155, #154, #231 ) ;
#148 = CARTESIAN_POINT ( 'NONE',  ( 0.0000000000000000000, 1.699443474555835000E-015, -1.500000000000000700 ) ) ;
#149 = FACE_OUTER_BOUND ( 'NONE', #8, .T. ) ;
#150 = CARTESIAN_POINT ( 'NONE',  ( 1.555301434917138400E-015, -12.69999999999999600, -1.358578643762695900 ) ) ;
#151 = CARTESIAN_POINT ( 'NONE',  ( 1.546641874354783400E-015, 12.55857864376269000, -1.499999999999997600 ) ) ;
#152 = DIRECTION ( 'NONE',  ( 0.0000000000000000000, 1.000000000000000000, 2.514091994169284200E-016 ) ) ;
#153 = CARTESIAN_POINT ( 'NONE',  ( 0.0000000000000000000, 12.69999999999999900, 9.438255012321224800 ) ) ;
#154 = DIRECTION ( 'NONE',  ( 0.0000000000000000000, -3.061616997868382600E-016, 1.000000000000000000 ) ) ;
#155 = CARTESIAN_POINT ( 'NONE',  ( 0.0000000000000000000, 1.699443474555835200E-015, -1.500000000000001600 ) ) ;
#156 = CARTESIAN_POINT ( 'NONE',  ( 0.0000000000000000000, -12.55857864376268700, -1.500000000000005600 ) ) ;
#157 = CONICAL_SURFACE ( 'NONE', #168, 12.55857864376268800, 0.7853981633974490600 ) ;
#158 = DIRECTION ( 'NONE',  ( 0.0000000000000000000, 0.7071067811866258400, -0.7071067811864691900 ) ) ;
#159 = VECTOR ( 'NONE', #158, 1000.000000000000100 ) ;
#160 = CARTESIAN_POINT ( 'NONE',  ( 0.0000000000000000000, 12.69999999999999900, 9.438255012321224800 ) ) ;
#161 = DIRECTION ( 'NONE',  ( 1.000000000000000000, 0.0000000000000000000, -0.0000000000000000000 ) ) ;
#162 = CARTESIAN_POINT ( 'NONE',  ( 0.0000000000000000000, 1.699443474555835200E-015, -1.500000000000001600 ) ) ;
#163 = AXIS2_PLACEMENT_3D ( 'NONE', #162, #192, #191 ) ;
#164 = DIRECTION ( 'NONE',  ( 0.0000000000000000000, 1.000000000000000000, 3.073328992872296900E-016 ) ) ;
#165 = AXIS2_PLACEMENT_3D ( 'NONE', #129, #161, #152 ) ;
#166 = DIRECTION ( 'NONE',  ( 0.0000000000000000000, 0.0000000000000000000, 1.000000000000000000 ) ) ;
#167 = DIRECTION ( 'NONE',  ( -1.000000000000000000, 0.0000000000000000000, 0.0000000000000000000 ) ) ;
#168 = AXIS2_PLACEMENT_3D ( 'NONE', #216, #215, #107 ) ;
#169 = AXIS2_PLACEMENT_3D ( 'NONE', #128, #167, #166 ) ;
#170 = DIRECTION ( 'NONE',  ( 0.0000000000000000000, 1.000000000000000000, 2.514091994169284200E-016 ) ) ;
#171 = CIRCLE ( 'NONE', #169, 13.80000000000000600 ) ;
#172 = AXIS2_PLACEMENT_3D ( 'NONE', #119, #121, #188 ) ;
#173 = VECTOR ( 'NONE', #209, 1000.000000000000000 ) ;
#174 = LINE ( 'NONE', #187, #173 ) ;
#175 = FACE_OUTER_BOUND ( 'NONE', #44, .T. ) ;
#176 = DIRECTION ( 'NONE',  ( -0.0000000000000000000, 3.061616997868382600E-016, -1.000000000000000000 ) ) ;
#177 = LINE ( 'NONE', #203, #202 ) ;
#178 = DIRECTION ( 'NONE',  ( -0.0000000000000000000, 3.061616997868382600E-016, -1.000000000000000000 ) ) ;
#179 = VECTOR ( 'NONE', #178, 1000.000000000000000 ) ;
#180 = CARTESIAN_POINT ( 'NONE',  ( 0.0000000000000000000, 12.69999999999999900, -1.358578643762688100 ) ) ;
#181 = CIRCLE ( 'NONE', #163, 12.55857864376268800 ) ;
#182 = CYLINDRICAL_SURFACE ( 'NONE', #195, 12.69999999999999900 ) ;
#183 = CIRCLE ( 'NONE', #142, 12.55857864376269200 ) ;
#184 = CARTESIAN_POINT ( 'NONE',  ( 0.0000000000000000000, 1.072509038427183100E-014, 15.30000000000000800 ) ) ;
#185 = SPHERICAL_SURFACE ( 'NONE', #143, 13.80000000000000600 ) ;
#186 = CARTESIAN_POINT ( 'NONE',  ( 0.0000000000000000000, 1.699443474555834900E-015, -1.500000000000000000 ) ) ;
#187 = CARTESIAN_POINT ( 'NONE',  ( 0.0000000000000000000, 12.70000000000000100, -1.499999999999996200 ) ) ;
#188 = DIRECTION ( 'NONE',  ( 0.0000000000000000000, 1.000000000000000000, 2.731847993664262700E-016 ) ) ;
#189 = FACE_OUTER_BOUND ( 'NONE', #52, .T. ) ;
#190 = AXIS2_PLACEMENT_3D ( 'NONE', #100, #89, #112 ) ;
#191 = DIRECTION ( 'NONE',  ( 0.0000000000000000000, 1.000000000000000000, 3.107937555406665100E-016 ) ) ;
#192 = DIRECTION ( 'NONE',  ( -0.0000000000000000000, 3.061616997868382600E-016, -1.000000000000000000 ) ) ;
#193 = LINE ( 'NONE', #113, #179 ) ;
#194 = CIRCLE ( 'NONE', #205, 12.70000000000000100 ) ;
#195 = AXIS2_PLACEMENT_3D ( 'NONE', #186, #176, #97 ) ;
#196 = DIRECTION ( 'NONE',  ( 0.0000000000000000000, 1.000000000000000000, 2.762611160361479200E-016 ) ) ;
#197 = DIRECTION ( 'NONE',  ( -0.0000000000000000000, 3.061616997868382600E-016, -1.000000000000000000 ) ) ;
#198 = CARTESIAN_POINT ( 'NONE',  ( 0.0000000000000000000, -1.692729075530098900E-015, 9.579676368558500200 ) ) ;
#199 = AXIS2_PLACEMENT_3D ( 'NONE', #198, #197, #196 ) ;
#200 = DIRECTION ( 'NONE',  ( 8.659560562354940300E-017, 0.7071067811865479100, 0.7071067811865472400 ) ) ;
#201 = DIRECTION ( 'NONE',  ( 8.659560562355888100E-017, -0.7071067811866254000, -0.7071067811864696400 ) ) ;
#202 = VECTOR ( 'NONE', #201, 1000.000000000000100 ) ;
#203 = CARTESIAN_POINT ( 'NONE',  ( 1.555301434917138600E-015, -12.70000000000000300, 9.438255012321217700 ) ) ;
#204 = AXIS2_PLACEMENT_3D ( 'NONE', #95, #145, #144 ) ;
#205 = AXIS2_PLACEMENT_3D ( 'NONE', #206, #93, #92 ) ;
#206 = CARTESIAN_POINT ( 'NONE',  ( 0.0000000000000000000, -1.649431272718333700E-015, 9.438255012321221200 ) ) ;
#207 = CARTESIAN_POINT ( 'NONE',  ( 1.537982313792428900E-015, -12.55857864376267900, 9.579676368558494900 ) ) ;
#208 = CARTESIAN_POINT ( 'NONE',  ( 0.0000000000000000000, 12.55857864376269000, 9.579676368558503800 ) ) ;
#209 = DIRECTION ( 'NONE',  ( -0.0000000000000000000, 3.061616997868382600E-016, -1.000000000000000000 ) ) ;
#210 = CARTESIAN_POINT ( 'NONE',  ( 1.537982313792428500E-015, 12.55857864376269000, -1.499999999999997600 ) ) ;
#211 = LINE ( 'NONE', #210, #115 ) ;
#212 = CARTESIAN_POINT ( 'NONE',  ( 0.0000000000000000000, 1.656145671744060700E-015, -1.358578643762692100 ) ) ;
#213 = LINE ( 'NONE', #106, #105 ) ;
#214 = DIRECTION ( 'NONE',  ( 0.0000000000000000000, 1.000000000000000000, 2.731847993664262700E-016 ) ) ;
#215 = DIRECTION ( 'NONE',  ( 0.0000000000000000000, -3.061616997868382600E-016, 1.000000000000000000 ) ) ;
#216 = CARTESIAN_POINT ( 'NONE',  ( 0.0000000000000000000, 1.699443474555835200E-015, -1.500000000000001600 ) ) ;
#217 = FACE_OUTER_BOUND ( 'NONE', #81, .T. ) ;
#218 = DIRECTION ( 'NONE',  ( 0.0000000000000000000, 1.000000000000000000, 3.073328992872296900E-016 ) ) ;
#219 = DIRECTION ( 'NONE',  ( -0.0000000000000000000, 3.061616997868382600E-016, -1.000000000000000000 ) ) ;
#220 = CARTESIAN_POINT ( 'NONE',  ( 0.0000000000000000000, 1.656145671744060700E-015, -1.358578643762692100 ) ) ;
#221 = AXIS2_PLACEMENT_3D ( 'NONE', #220, #219, #218 ) ;
#222 = CIRCLE ( 'NONE', #221, 12.69999999999999800 ) ;
#223 = FACE_OUTER_BOUND ( 'NONE', #31, .T. ) ;
#224 = AXIS2_PLACEMENT_3D ( 'NONE', #148, #111, #110 ) ;
#225 = DIRECTION ( 'NONE',  ( 0.0000000000000000000, 1.000000000000000000, 3.107937555406665100E-016 ) ) ;
#226 = DIRECTION ( 'NONE',  ( -0.0000000000000000000, 3.061616997868382600E-016, -1.000000000000000000 ) ) ;
#227 = CARTESIAN_POINT ( 'NONE',  ( 0.0000000000000000000, 1.699443474555835200E-015, -1.500000000000001600 ) ) ;
#228 = AXIS2_PLACEMENT_3D ( 'NONE', #227, #226, #225 ) ;
#229 = CIRCLE ( 'NONE', #228, 12.55857864376268800 ) ;
#230 = PLANE ( 'NONE',  #224 ) ;
#231 = DIRECTION ( 'NONE',  ( 0.0000000000000000000, -1.000000000000000000, -3.107937555406665100E-016 ) ) ;
#232 = APPROVAL_STATUS ( 'not_yet_approved' ) ;
#233 = PRODUCT_DEFINITION_FORMATION_WITH_SPECIFIED_SOURCE ( 'ANY', '', #18, .NOT_KNOWN. ) ;
#234 = CC_DESIGN_DATE_AND_TIME_ASSIGNMENT ( #236, #235, ( #239 ) ) ;
#235 = DATE_TIME_ROLE ( 'creation_date' ) ;
#236 = DATE_AND_TIME ( #241, #237 ) ;
#237 = LOCAL_TIME ( 12, 28, 4.000000000000000000, #242 ) ;
#238 = APPROVAL_STATUS ( 'not_yet_approved' ) ;
#239 = PRODUCT_DEFINITION ( 'UNKNOWN', '', #233, #240 ) ;
#240 = DESIGN_CONTEXT ( 'detailed design', #273, 'design' ) ;
#241 = CALENDAR_DATE ( 2012, 28, 9 ) ;
#242 = COORDINATED_UNIVERSAL_TIME_OFFSET ( 5, 0, .BEHIND. ) ;
#243 = CC_DESIGN_PERSON_AND_ORGANIZATION_ASSIGNMENT ( #244, #287, ( #239 ) ) ;
#244 = PERSON_AND_ORGANIZATION ( #22, #270 ) ;
#245 = DATE_AND_TIME ( #246, #247 ) ;
#246 = CALENDAR_DATE ( 2012, 28, 9 ) ;
#247 = LOCAL_TIME ( 12, 28, 4.000000000000000000, #248 ) ;
#248 = COORDINATED_UNIVERSAL_TIME_OFFSET ( 5, 0, .BEHIND. ) ;
#249 = APPROVAL_PERSON_ORGANIZATION ( #253, #251, #250 ) ;
#250 = APPROVAL_ROLE ( '' ) ;
#251 = APPROVAL ( #252, 'UNSPECIFIED' ) ;
#252 = APPROVAL_STATUS ( 'not_yet_approved' ) ;
#253 = PERSON_AND_ORGANIZATION ( #22, #270 ) ;
#254 = CC_DESIGN_DATE_AND_TIME_ASSIGNMENT ( #256, #255, ( #263 ) ) ;
#255 = DATE_TIME_ROLE ( 'classification_date' ) ;
#256 = DATE_AND_TIME ( #257, #258 ) ;
#257 = CALENDAR_DATE ( 2012, 28, 9 ) ;
#258 = LOCAL_TIME ( 12, 28, 4.000000000000000000, #259 ) ;
#259 = COORDINATED_UNIVERSAL_TIME_OFFSET ( 5, 0, .BEHIND. ) ;
#260 = CC_DESIGN_PERSON_AND_ORGANIZATION_ASSIGNMENT ( #262, #261, ( #263 ) ) ;
#261 = PERSON_AND_ORGANIZATION_ROLE ( 'classification_officer' ) ;
#262 = PERSON_AND_ORGANIZATION ( #22, #270 ) ;
#263 = SECURITY_CLASSIFICATION ( '', '', #264 ) ;
#264 = SECURITY_CLASSIFICATION_LEVEL ( 'unclassified' ) ;
#265 = CC_DESIGN_PERSON_AND_ORGANIZATION_ASSIGNMENT ( #267, #266, ( #233 ) ) ;
#266 = PERSON_AND_ORGANIZATION_ROLE ( 'design_supplier' ) ;
#267 = PERSON_AND_ORGANIZATION ( #22, #270 ) ;
#268 = CC_DESIGN_PERSON_AND_ORGANIZATION_ASSIGNMENT ( #276, #269, ( #233 ) ) ;
#269 = PERSON_AND_ORGANIZATION_ROLE ( 'creator' ) ;
#270 = ORGANIZATION ( 'UNSPECIFIED', 'UNSPECIFIED', '' ) ;
#271 = PERSON_AND_ORGANIZATION_ROLE ( 'design_owner' ) ;
#272 = APPLICATION_PROTOCOL_DEFINITION ( 'international standard', 'config_control_design', 1994, #273 ) ;
#273 = APPLICATION_CONTEXT ( 'configuration controlled 3d designs of mechanical parts and assemblies' ) ;
#274 = CC_DESIGN_PERSON_AND_ORGANIZATION_ASSIGNMENT ( #275, #271, ( #18 ) ) ;
#275 = PERSON_AND_ORGANIZATION ( #22, #270 ) ;
#276 = PERSON_AND_ORGANIZATION ( #22, #270 ) ;
#277 = CC_DESIGN_APPROVAL ( #285, ( #233 ) ) ;
#278 = APPROVAL_DATE_TIME ( #279, #285 ) ;
#279 = DATE_AND_TIME ( #280, #281 ) ;
#280 = CALENDAR_DATE ( 2012, 28, 9 ) ;
#281 = LOCAL_TIME ( 12, 28, 4.000000000000000000, #282 ) ;
#282 = COORDINATED_UNIVERSAL_TIME_OFFSET ( 5, 0, .BEHIND. ) ;
#283 = APPROVAL_PERSON_ORGANIZATION ( #286, #285, #284 ) ;
#284 = APPROVAL_ROLE ( '' ) ;
#285 = APPROVAL ( #232, 'UNSPECIFIED' ) ;
#286 = PERSON_AND_ORGANIZATION ( #22, #270 ) ;
#287 = PERSON_AND_ORGANIZATION_ROLE ( 'creator' ) ;
#288 = CC_DESIGN_APPROVAL ( #296, ( #239 ) ) ;
#289 = APPROVAL_DATE_TIME ( #290, #296 ) ;
#290 = DATE_AND_TIME ( #291, #292 ) ;
#291 = CALENDAR_DATE ( 2012, 28, 9 ) ;
#292 = LOCAL_TIME ( 12, 28, 4.000000000000000000, #293 ) ;
#293 = COORDINATED_UNIVERSAL_TIME_OFFSET ( 5, 0, .BEHIND. ) ;
#294 = APPROVAL_PERSON_ORGANIZATION ( #297, #296, #295 ) ;
#295 = APPROVAL_ROLE ( '' ) ;
#296 = APPROVAL ( #238, 'UNSPECIFIED' ) ;
#297 = PERSON_AND_ORGANIZATION ( #22, #270 ) ;
#298 = CC_DESIGN_SECURITY_CLASSIFICATION ( #263, ( #233 ) ) ;
#299 = PRODUCT_DEFINITION_SHAPE ( 'NONE', 'NONE',  #239 ) ;
#300 = SHAPE_DEFINITION_REPRESENTATION ( #299, #123 ) ;
#301 = PRODUCT_RELATED_PRODUCT_CATEGORY ( 'detail', '', ( #18 ) ) ;
ENDSEC;
END-ISO-10303-21;
