ISO-10303-21;
HEADER;
FILE_DESCRIPTION (( 'STEP AP203' ),
    '1' );
FILE_NAME ('Web Model 84467.STEP',
    '2017-02-01T15:46:43',
    ( '' ),
    ( '' ),
    'SwSTEP 2.0',
    'SolidWorks 2016',
    '' );
FILE_SCHEMA (( 'CONFIG_CONTROL_DESIGN' ));
ENDSEC;

DATA;
#1 = ORIENTED_EDGE ( 'NONE', *, *, #167, .T. ) ;
#2 = CALENDAR_DATE ( 2017, 1, 2 ) ;
#3 = DIRECTION ( 'NONE',  ( -1.000000000000000000, 0.0000000000000000000, 0.0000000000000000000 ) ) ;
#4 = DIRECTION ( 'NONE',  ( 0.0000000000000000000, 0.0000000000000000000, 1.000000000000000000 ) ) ;
#5 = CARTESIAN_POINT ( 'NONE',  ( 0.0000000000000000000, 0.0000000000000000000, 0.0000000000000000000 ) ) ;
#6 = DATE_AND_TIME ( #74, #111 ) ;
#7 = DIRECTION ( 'NONE',  ( 0.0000000000000000000, 0.0000000000000000000, 1.000000000000000000 ) ) ;
#8 = PERSON_AND_ORGANIZATION ( #156, #45 ) ;
#9 = AXIS2_PLACEMENT_3D ( 'NONE', #85, #4, #26 ) ;
#10 = APPROVAL_STATUS ( 'not_yet_approved' ) ;
#11 = EDGE_LOOP ( 'NONE', ( #1, #51 ) ) ;
#12 = LOCAL_TIME ( 10, 46, 43.00000000000000000, #93 ) ;
#13 = DIRECTION ( 'NONE',  ( 1.000000000000000000, 0.0000000000000000000, 0.0000000000000000000 ) ) ;
#14 = PRODUCT_DEFINITION_FORMATION_WITH_SPECIFIED_SOURCE ( 'ANY', '', #168, .NOT_KNOWN. ) ;
#15 = DIRECTION ( 'NONE',  ( -0.0000000000000000000, -0.0000000000000000000, -1.000000000000000000 ) ) ;
#16 = APPROVAL_DATE_TIME ( #52, #125 ) ;
#17 = AXIS2_PLACEMENT_3D ( 'NONE', #65, #84, #68 ) ;
#18 = MECHANICAL_CONTEXT ( 'NONE', #75, 'mechanical' ) ;
#19 =( LENGTH_UNIT ( ) NAMED_UNIT ( * ) SI_UNIT ( .MILLI., .METRE. ) );
#20 = APPLICATION_PROTOCOL_DEFINITION ( 'international standard', 'config_control_design', 1994, #174 ) ;
#21 = COORDINATED_UNIVERSAL_TIME_OFFSET ( 5, 0, .BEHIND. ) ;
#22 = CARTESIAN_POINT ( 'NONE',  ( 0.0000000000000000000, 0.0000000000000000000, 0.0000000000000000000 ) ) ;
#23 = PRODUCT_DEFINITION ( 'UNKNOWN', '', #14, #41 ) ;
#24 = EDGE_CURVE ( 'NONE', #138, #63, #82, .T. ) ;
#25 = APPROVAL ( #88, 'UNSPECIFIED' ) ;
#26 = DIRECTION ( 'NONE',  ( 1.000000000000000000, 0.0000000000000000000, 0.0000000000000000000 ) ) ;
#27 = CARTESIAN_POINT ( 'NONE',  ( 20.00000000000000000, 2.449293598294706500E-015, 4.000000000000000000 ) ) ;
#28 = VECTOR ( 'NONE', #50, 1000.000000000000000 ) ;
#29 = FACE_OUTER_BOUND ( 'NONE', #59, .T. ) ;
#30 = PERSON_AND_ORGANIZATION ( #156, #45 ) ;
#31 = DATE_AND_TIME ( #37, #136 ) ;
#32 = CC_DESIGN_DATE_AND_TIME_ASSIGNMENT ( #31, #124, ( #23 ) ) ;
#33 = AXIS2_PLACEMENT_3D ( 'NONE', #161, #175, #35 ) ;
#34 = DIRECTION ( 'NONE',  ( 0.0000000000000000000, 0.0000000000000000000, 1.000000000000000000 ) ) ;
#35 = DIRECTION ( 'NONE',  ( 1.000000000000000000, 0.0000000000000000000, 0.0000000000000000000 ) ) ;
#36 = FACE_OUTER_BOUND ( 'NONE', #11, .T. ) ;
#37 = CALENDAR_DATE ( 2017, 1, 2 ) ;
#38 = ADVANCED_BREP_SHAPE_REPRESENTATION ( 'Web Model 84467', ( #54, #104 ), #86 ) ;
#39 = CIRCLE ( 'NONE', #134, 20.00000000000000000 ) ;
#40 = CC_DESIGN_PERSON_AND_ORGANIZATION_ASSIGNMENT ( #155, #170, ( #168 ) ) ;
#41 = DESIGN_CONTEXT ( 'detailed design', #174, 'design' ) ;
#42 = SECURITY_CLASSIFICATION_LEVEL ( 'unclassified' ) ;
#43 = APPROVAL_PERSON_ORGANIZATION ( #58, #100, #106 ) ;
#44 = EDGE_LOOP ( 'NONE', ( #146, #133 ) ) ;
#45 = ORGANIZATION ( 'UNSPECIFIED', 'UNSPECIFIED', '' ) ;
#46 = PERSON_AND_ORGANIZATION_ROLE ( 'creator' ) ;
#47 = PERSON_AND_ORGANIZATION ( #156, #45 ) ;
#48 = CC_DESIGN_PERSON_AND_ORGANIZATION_ASSIGNMENT ( #162, #46, ( #14 ) ) ;
#49 = DIRECTION ( 'NONE',  ( -0.0000000000000000000, -0.0000000000000000000, -1.000000000000000000 ) ) ;
#50 = DIRECTION ( 'NONE',  ( -0.0000000000000000000, -0.0000000000000000000, -1.000000000000000000 ) ) ;
#51 = ORIENTED_EDGE ( 'NONE', *, *, #24, .T. ) ;
#52 = DATE_AND_TIME ( #73, #12 ) ;
#53 = ORIENTED_EDGE ( 'NONE', *, *, #78, .T. ) ;
#54 = MANIFOLD_SOLID_BREP ( 'Extrude1', #157 ) ;
#55 = DATE_TIME_ROLE ( 'classification_date' ) ;
#56 = APPROVAL_ROLE ( '' ) ;
#57 = CYLINDRICAL_SURFACE ( 'NONE', #91, 20.00000000000000000 ) ;
#58 = PERSON_AND_ORGANIZATION ( #156, #45 ) ;
#59 = EDGE_LOOP ( 'NONE', ( #114, #163, #53, #80 ) ) ;
#60 = FACE_OUTER_BOUND ( 'NONE', #44, .T. ) ;
#61 = LOCAL_TIME ( 10, 46, 43.00000000000000000, #101 ) ;
#62 = CARTESIAN_POINT ( 'NONE',  ( 0.0000000000000000000, 0.0000000000000000000, 4.000000000000000000 ) ) ;
#63 = VERTEX_POINT ( 'NONE', #140 ) ;
#64 = APPROVAL_DATE_TIME ( #153, #25 ) ;
#65 = CARTESIAN_POINT ( 'NONE',  ( 0.0000000000000000000, 0.0000000000000000000, 0.0000000000000000000 ) ) ;
#66 = CC_DESIGN_APPROVAL ( #125, ( #14 ) ) ;
#67 = PLANE ( 'NONE',  #17 ) ;
#68 = DIRECTION ( 'NONE',  ( 1.000000000000000000, 0.0000000000000000000, -0.0000000000000000000 ) ) ;
#69 = CARTESIAN_POINT ( 'NONE',  ( 0.0000000000000000000, 0.0000000000000000000, 4.000000000000000000 ) ) ;
#70 = CIRCLE ( 'NONE', #9, 20.00000000000000000 ) ;
#71 = EDGE_CURVE ( 'NONE', #138, #159, #76, .T. ) ;
#72 = VERTEX_POINT ( 'NONE', #143 ) ;
#73 = CALENDAR_DATE ( 2017, 1, 2 ) ;
#74 = CALENDAR_DATE ( 2017, 1, 2 ) ;
#75 = APPLICATION_CONTEXT ( 'configuration controlled 3d designs of mechanical parts and assemblies' ) ;
#76 = LINE ( 'NONE', #94, #130 ) ;
#77 = LOCAL_TIME ( 10, 46, 43.00000000000000000, #120 ) ;
#78 = EDGE_CURVE ( 'NONE', #159, #72, #39, .T. ) ;
#79 = APPLICATION_PROTOCOL_DEFINITION ( 'international standard', 'config_control_design', 1994, #75 ) ;
#80 = ORIENTED_EDGE ( 'NONE', *, *, #89, .F. ) ;
#81 = DIRECTION ( 'NONE',  ( 0.0000000000000000000, 0.0000000000000000000, 1.000000000000000000 ) ) ;
#82 = CIRCLE ( 'NONE', #33, 20.00000000000000000 ) ;
#83 = CC_DESIGN_PERSON_AND_ORGANIZATION_ASSIGNMENT ( #47, #127, ( #23 ) ) ;
#84 = DIRECTION ( 'NONE',  ( 0.0000000000000000000, 0.0000000000000000000, 1.000000000000000000 ) ) ;
#85 = CARTESIAN_POINT ( 'NONE',  ( 0.0000000000000000000, 0.0000000000000000000, 0.0000000000000000000 ) ) ;
#86 =( GEOMETRIC_REPRESENTATION_CONTEXT ( 3 ) GLOBAL_UNCERTAINTY_ASSIGNED_CONTEXT ( ( #118 ) ) GLOBAL_UNIT_ASSIGNED_CONTEXT ( ( #19, #126, #109 ) ) REPRESENTATION_CONTEXT ( 'NONE', 'WORKASPACE' ) );
#87 = CC_DESIGN_PERSON_AND_ORGANIZATION_ASSIGNMENT ( #30, #149, ( #14 ) ) ;
#88 = APPROVAL_STATUS ( 'not_yet_approved' ) ;
#89 = EDGE_CURVE ( 'NONE', #63, #72, #139, .T. ) ;
#90 = DATE_AND_TIME ( #98, #77 ) ;
#91 = AXIS2_PLACEMENT_3D ( 'NONE', #129, #49, #3 ) ;
#92 = CIRCLE ( 'NONE', #122, 20.00000000000000000 ) ;
#93 = COORDINATED_UNIVERSAL_TIME_OFFSET ( 5, 0, .BEHIND. ) ;
#94 = CARTESIAN_POINT ( 'NONE',  ( 20.00000000000000000, 2.449293598294706500E-015, 4.000000000000000000 ) ) ;
#95 = CARTESIAN_POINT ( 'NONE',  ( -20.00000000000000000, 0.0000000000000000000, 4.000000000000000000 ) ) ;
#96 = CC_DESIGN_DATE_AND_TIME_ASSIGNMENT ( #6, #55, ( #102 ) ) ;
#97 = ADVANCED_FACE ( 'NONE', ( #36 ), #150, .T. ) ;
#98 = CALENDAR_DATE ( 2017, 1, 2 ) ;
#99 = ADVANCED_FACE ( 'NONE', ( #166 ), #57, .T. ) ;
#100 = APPROVAL ( #137, 'UNSPECIFIED' ) ;
#101 = COORDINATED_UNIVERSAL_TIME_OFFSET ( 5, 0, .BEHIND. ) ;
#102 = SECURITY_CLASSIFICATION ( '', '', #42 ) ;
#103 = APPROVAL_PERSON_ORGANIZATION ( #171, #25, #56 ) ;
#104 = AXIS2_PLACEMENT_3D ( 'NONE', #5, #7, #160 ) ;
#105 = PERSON_AND_ORGANIZATION ( #156, #45 ) ;
#106 = APPROVAL_ROLE ( '' ) ;
#107 = APPROVAL_ROLE ( '' ) ;
#108 = ORIENTED_EDGE ( 'NONE', *, *, #89, .T. ) ;
#109 =( NAMED_UNIT ( * ) SI_UNIT ( $, .STERADIAN. ) SOLID_ANGLE_UNIT ( ) );
#110 = ORIENTED_EDGE ( 'NONE', *, *, #123, .T. ) ;
#111 = LOCAL_TIME ( 10, 46, 43.00000000000000000, #158 ) ;
#112 = AXIS2_PLACEMENT_3D ( 'NONE', #69, #15, #116 ) ;
#113 = DIRECTION ( 'NONE',  ( 1.000000000000000000, 0.0000000000000000000, 0.0000000000000000000 ) ) ;
#114 = ORIENTED_EDGE ( 'NONE', *, *, #24, .F. ) ;
#115 = ORIENTED_EDGE ( 'NONE', *, *, #71, .F. ) ;
#116 = DIRECTION ( 'NONE',  ( -1.000000000000000000, 0.0000000000000000000, 0.0000000000000000000 ) ) ;
#117 = APPROVAL_PERSON_ORGANIZATION ( #8, #125, #107 ) ;
#118 = UNCERTAINTY_MEASURE_WITH_UNIT (LENGTH_MEASURE( 1.000000000000000100E-005 ), #19, 'distance_accuracy_value', 'NONE');
#119 = CC_DESIGN_PERSON_AND_ORGANIZATION_ASSIGNMENT ( #105, #135, ( #102 ) ) ;
#120 = COORDINATED_UNIVERSAL_TIME_OFFSET ( 5, 0, .BEHIND. ) ;
#121 = ADVANCED_FACE ( 'NONE', ( #60 ), #67, .F. ) ;
#122 = AXIS2_PLACEMENT_3D ( 'NONE', #165, #147, #13 ) ;
#123 = EDGE_CURVE ( 'NONE', #72, #159, #70, .T. ) ;
#124 = DATE_TIME_ROLE ( 'creation_date' ) ;
#125 = APPROVAL ( #10, 'UNSPECIFIED' ) ;
#126 =( NAMED_UNIT ( * ) PLANE_ANGLE_UNIT ( ) SI_UNIT ( $, .RADIAN. ) );
#127 = PERSON_AND_ORGANIZATION_ROLE ( 'creator' ) ;
#128 = APPROVAL_DATE_TIME ( #90, #100 ) ;
#129 = CARTESIAN_POINT ( 'NONE',  ( 0.0000000000000000000, 0.0000000000000000000, 4.000000000000000000 ) ) ;
#130 = VECTOR ( 'NONE', #141, 1000.000000000000000 ) ;
#131 = CARTESIAN_POINT ( 'NONE',  ( 20.00000000000000000, 2.449293598294706500E-015, 0.0000000000000000000 ) ) ;
#132 = AXIS2_PLACEMENT_3D ( 'NONE', #62, #34, #164 ) ;
#133 = ORIENTED_EDGE ( 'NONE', *, *, #78, .F. ) ;
#134 = AXIS2_PLACEMENT_3D ( 'NONE', #22, #81, #113 ) ;
#135 = PERSON_AND_ORGANIZATION_ROLE ( 'classification_officer' ) ;
#136 = LOCAL_TIME ( 10, 46, 43.00000000000000000, #21 ) ;
#137 = APPROVAL_STATUS ( 'not_yet_approved' ) ;
#138 = VERTEX_POINT ( 'NONE', #27 ) ;
#139 = LINE ( 'NONE', #95, #28 ) ;
#140 = CARTESIAN_POINT ( 'NONE',  ( -20.00000000000000000, 0.0000000000000000000, 4.000000000000000000 ) ) ;
#141 = DIRECTION ( 'NONE',  ( -0.0000000000000000000, -0.0000000000000000000, -1.000000000000000000 ) ) ;
#142 = CC_DESIGN_APPROVAL ( #25, ( #102 ) ) ;
#143 = CARTESIAN_POINT ( 'NONE',  ( -20.00000000000000000, 0.0000000000000000000, 0.0000000000000000000 ) ) ;
#144 = SHAPE_DEFINITION_REPRESENTATION ( #173, #38 ) ;
#145 = CC_DESIGN_SECURITY_CLASSIFICATION ( #102, ( #14 ) ) ;
#146 = ORIENTED_EDGE ( 'NONE', *, *, #123, .F. ) ;
#147 = DIRECTION ( 'NONE',  ( 0.0000000000000000000, 0.0000000000000000000, 1.000000000000000000 ) ) ;
#148 = CC_DESIGN_APPROVAL ( #100, ( #23 ) ) ;
#149 = PERSON_AND_ORGANIZATION_ROLE ( 'design_supplier' ) ;
#150 = PLANE ( 'NONE',  #132 ) ;
#151 = EDGE_LOOP ( 'NONE', ( #115, #152, #108, #110 ) ) ;
#152 = ORIENTED_EDGE ( 'NONE', *, *, #167, .F. ) ;
#153 = DATE_AND_TIME ( #2, #61 ) ;
#154 = ADVANCED_FACE ( 'NONE', ( #29 ), #169, .T. ) ;
#155 = PERSON_AND_ORGANIZATION ( #156, #45 ) ;
#156 = PERSON ( 'UNSPECIFIED', 'UNSPECIFIED', 'UNSPECIFIED', ('UNSPECIFIED'), ('UNSPECIFIED'), ('UNSPECIFIED') ) ;
#157 = CLOSED_SHELL ( 'NONE', ( #154, #99, #97, #121 ) ) ;
#158 = COORDINATED_UNIVERSAL_TIME_OFFSET ( 5, 0, .BEHIND. ) ;
#159 = VERTEX_POINT ( 'NONE', #131 ) ;
#160 = DIRECTION ( 'NONE',  ( 1.000000000000000000, 0.0000000000000000000, 0.0000000000000000000 ) ) ;
#161 = CARTESIAN_POINT ( 'NONE',  ( 0.0000000000000000000, 0.0000000000000000000, 4.000000000000000000 ) ) ;
#162 = PERSON_AND_ORGANIZATION ( #156, #45 ) ;
#163 = ORIENTED_EDGE ( 'NONE', *, *, #71, .T. ) ;
#164 = DIRECTION ( 'NONE',  ( 1.000000000000000000, 0.0000000000000000000, -0.0000000000000000000 ) ) ;
#165 = CARTESIAN_POINT ( 'NONE',  ( 0.0000000000000000000, 0.0000000000000000000, 4.000000000000000000 ) ) ;
#166 = FACE_OUTER_BOUND ( 'NONE', #151, .T. ) ;
#167 = EDGE_CURVE ( 'NONE', #63, #138, #92, .T. ) ;
#168 = PRODUCT ( 'Web Model 84467', 'Web Model 84467', '', ( #18 ) ) ;
#169 = CYLINDRICAL_SURFACE ( 'NONE', #112, 20.00000000000000000 ) ;
#170 = PERSON_AND_ORGANIZATION_ROLE ( 'design_owner' ) ;
#171 = PERSON_AND_ORGANIZATION ( #156, #45 ) ;
#172 = PRODUCT_RELATED_PRODUCT_CATEGORY ( 'detail', '', ( #168 ) ) ;
#173 = PRODUCT_DEFINITION_SHAPE ( 'NONE', 'NONE',  #23 ) ;
#174 = APPLICATION_CONTEXT ( 'configuration controlled 3d designs of mechanical parts and assemblies' ) ;
#175 = DIRECTION ( 'NONE',  ( 0.0000000000000000000, 0.0000000000000000000, 1.000000000000000000 ) ) ;
ENDSEC;
END-ISO-10303-21;
