ISO-10303-21;
HEADER;
FILE_DESCRIPTION (( 'STEP AP203' ),
    '1' );
FILE_NAME ('Web Model 37688_37720.step',
    '2018-08-03T18:41:04',
    ( '' ),
    ( '' ),
    'SwSTEP 2.0',
    'SolidWorks 2016',
    '' );
FILE_SCHEMA (( 'CONFIG_CONTROL_DESIGN' ));
ENDSEC;

DATA;
#1 = DATE_AND_TIME ( #122, #104 ) ;
#2 = DIRECTION ( 'NONE',  ( -0.0000000000000000000, -0.0000000000000000000, -1.000000000000000000 ) ) ;
#3 = CARTESIAN_POINT ( 'NONE',  ( 0.0000000000000000000, 0.0000000000000000000, -3.174999999999999800 ) ) ;
#4 = CC_DESIGN_PERSON_AND_ORGANIZATION_ASSIGNMENT ( #116, #34, ( #149 ) ) ;
#5 = PERSON_AND_ORGANIZATION ( #109, #29 ) ;
#6 = DIRECTION ( 'NONE',  ( 1.000000000000000000, 0.0000000000000000000, -0.0000000000000000000 ) ) ;
#7 = APPLICATION_PROTOCOL_DEFINITION ( 'international standard', 'config_control_design', 1994, #111 ) ;
#8 = AXIS2_PLACEMENT_3D ( 'NONE', #166, #106, #40 ) ;
#9 =( LENGTH_UNIT ( ) NAMED_UNIT ( * ) SI_UNIT ( .MILLI., .METRE. ) );
#10 = ADVANCED_FACE ( 'NONE', ( #94 ), #125, .F. ) ;
#11 = MECHANICAL_CONTEXT ( 'NONE', #158, 'mechanical' ) ;
#12 = ORIENTED_EDGE ( 'NONE', *, *, #27, .T. ) ;
#13 = CC_DESIGN_PERSON_AND_ORGANIZATION_ASSIGNMENT ( #161, #155, ( #46 ) ) ;
#14 = EDGE_CURVE ( 'NONE', #159, #18, #105, .T. ) ;
#15 = APPROVAL_DATE_TIME ( #49, #24 ) ;
#16 = CARTESIAN_POINT ( 'NONE',  ( -6.349999999999999600, 0.0000000000000000000, -3.174999999999999800 ) ) ;
#17 = DIRECTION ( 'NONE',  ( 0.0000000000000000000, 0.0000000000000000000, 1.000000000000000000 ) ) ;
#18 = VERTEX_POINT ( 'NONE', #80 ) ;
#19 = ADVANCED_FACE ( 'NONE', ( #148 ), #88, .T. ) ;
#20 = APPROVAL_ROLE ( '' ) ;
#21 = DIRECTION ( 'NONE',  ( 0.0000000000000000000, 0.0000000000000000000, 1.000000000000000000 ) ) ;
#22 = LOCAL_TIME ( 14, 41, 4.000000000000000000, #163 ) ;
#23 = AXIS2_PLACEMENT_3D ( 'NONE', #108, #2, #42 ) ;
#24 = APPROVAL ( #70, 'UNSPECIFIED' ) ;
#25 = CLOSED_SHELL ( 'NONE', ( #132, #19, #115, #10 ) ) ;
#26 = CYLINDRICAL_SURFACE ( 'NONE', #23, 6.349999999999999600 ) ;
#27 = EDGE_CURVE ( 'NONE', #36, #126, #121, .T. ) ;
#28 = ORIENTED_EDGE ( 'NONE', *, *, #118, .F. ) ;
#29 = ORGANIZATION ( 'UNSPECIFIED', 'UNSPECIFIED', '' ) ;
#30 = CARTESIAN_POINT ( 'NONE',  ( 0.0000000000000000000, 0.0000000000000000000, 3.174999999999999800 ) ) ;
#31 = AXIS2_PLACEMENT_3D ( 'NONE', #30, #53, #165 ) ;
#32 = APPROVAL_STATUS ( 'not_yet_approved' ) ;
#33 = APPROVAL_PERSON_ORGANIZATION ( #61, #24, #20 ) ;
#34 = PERSON_AND_ORGANIZATION_ROLE ( 'creator' ) ;
#35 = APPROVAL ( #32, 'UNSPECIFIED' ) ;
#36 = VERTEX_POINT ( 'NONE', #16 ) ;
#37 = PERSON_AND_ORGANIZATION ( #109, #29 ) ;
#38 =( GEOMETRIC_REPRESENTATION_CONTEXT ( 3 ) GLOBAL_UNCERTAINTY_ASSIGNED_CONTEXT ( ( #164 ) ) GLOBAL_UNIT_ASSIGNED_CONTEXT ( ( #9, #71, #56 ) ) REPRESENTATION_CONTEXT ( 'NONE', 'WORKASPACE' ) );
#39 = COORDINATED_UNIVERSAL_TIME_OFFSET ( 5, 0, .BEHIND. ) ;
#40 = DIRECTION ( 'NONE',  ( 1.000000000000000000, 0.0000000000000000000, 0.0000000000000000000 ) ) ;
#41 = ORIENTED_EDGE ( 'NONE', *, *, #58, .F. ) ;
#42 = DIRECTION ( 'NONE',  ( -1.000000000000000000, 0.0000000000000000000, 0.0000000000000000000 ) ) ;
#43 = APPROVAL_DATE_TIME ( #76, #170 ) ;
#44 = APPROVAL_ROLE ( '' ) ;
#45 = DATE_TIME_ROLE ( 'classification_date' ) ;
#46 = SECURITY_CLASSIFICATION ( '', '', #85 ) ;
#47 = VECTOR ( 'NONE', #95, 1000.000000000000000 ) ;
#48 = EDGE_LOOP ( 'NONE', ( #138, #28 ) ) ;
#49 = DATE_AND_TIME ( #102, #139 ) ;
#50 = ORIENTED_EDGE ( 'NONE', *, *, #174, .T. ) ;
#51 = CARTESIAN_POINT ( 'NONE',  ( -6.349999999999999600, 0.0000000000000000000, 3.174999999999999800 ) ) ;
#52 = CC_DESIGN_APPROVAL ( #24, ( #46 ) ) ;
#53 = DIRECTION ( 'NONE',  ( 0.0000000000000000000, 0.0000000000000000000, 1.000000000000000000 ) ) ;
#54 = CARTESIAN_POINT ( 'NONE',  ( -6.349999999999999600, 0.0000000000000000000, 3.174999999999999800 ) ) ;
#55 = DIRECTION ( 'NONE',  ( 1.000000000000000000, 0.0000000000000000000, 0.0000000000000000000 ) ) ;
#56 =( NAMED_UNIT ( * ) SI_UNIT ( $, .STERADIAN. ) SOLID_ANGLE_UNIT ( ) );
#57 = PERSON_AND_ORGANIZATION_ROLE ( 'creator' ) ;
#58 = EDGE_CURVE ( 'NONE', #18, #126, #160, .T. ) ;
#59 = DIRECTION ( 'NONE',  ( 1.000000000000000000, 0.0000000000000000000, 0.0000000000000000000 ) ) ;
#60 = FACE_OUTER_BOUND ( 'NONE', #134, .T. ) ;
#61 = PERSON_AND_ORGANIZATION ( #109, #29 ) ;
#62 = ORIENTED_EDGE ( 'NONE', *, *, #118, .T. ) ;
#63 = LOCAL_TIME ( 14, 41, 4.000000000000000000, #130 ) ;
#64 = EDGE_CURVE ( 'NONE', #159, #36, #117, .T. ) ;
#65 = DIRECTION ( 'NONE',  ( -1.000000000000000000, 0.0000000000000000000, 0.0000000000000000000 ) ) ;
#66 = COORDINATED_UNIVERSAL_TIME_OFFSET ( 5, 0, .BEHIND. ) ;
#67 = CARTESIAN_POINT ( 'NONE',  ( 0.0000000000000000000, 0.0000000000000000000, -3.174999999999999800 ) ) ;
#68 = DIRECTION ( 'NONE',  ( 0.0000000000000000000, 0.0000000000000000000, 1.000000000000000000 ) ) ;
#69 = DIRECTION ( 'NONE',  ( 0.0000000000000000000, 0.0000000000000000000, 1.000000000000000000 ) ) ;
#70 = APPROVAL_STATUS ( 'not_yet_approved' ) ;
#71 =( NAMED_UNIT ( * ) PLANE_ANGLE_UNIT ( ) SI_UNIT ( $, .RADIAN. ) );
#72 = COORDINATED_UNIVERSAL_TIME_OFFSET ( 5, 0, .BEHIND. ) ;
#73 = APPROVAL_STATUS ( 'not_yet_approved' ) ;
#74 = CC_DESIGN_DATE_AND_TIME_ASSIGNMENT ( #1, #45, ( #46 ) ) ;
#75 = APPROVAL_PERSON_ORGANIZATION ( #97, #35, #128 ) ;
#76 = DATE_AND_TIME ( #146, #142 ) ;
#77 = ADVANCED_BREP_SHAPE_REPRESENTATION ( 'Web Model 37688_37720', ( #152, #171 ), #38 ) ;
#78 = PERSON_AND_ORGANIZATION ( #109, #29 ) ;
#79 = PLANE ( 'NONE',  #162 ) ;
#80 = CARTESIAN_POINT ( 'NONE',  ( 6.349999999999999600, 7.776507174585692200E-016, 3.174999999999999800 ) ) ;
#81 = AXIS2_PLACEMENT_3D ( 'NONE', #67, #82, #55 ) ;
#82 = DIRECTION ( 'NONE',  ( 0.0000000000000000000, 0.0000000000000000000, 1.000000000000000000 ) ) ;
#83 = EDGE_LOOP ( 'NONE', ( #101, #50 ) ) ;
#84 = DATE_AND_TIME ( #93, #63 ) ;
#85 = SECURITY_CLASSIFICATION_LEVEL ( 'unclassified' ) ;
#86 = DATE_AND_TIME ( #136, #22 ) ;
#87 = PRODUCT_DEFINITION ( 'UNKNOWN', '', #149, #120 ) ;
#88 = CYLINDRICAL_SURFACE ( 'NONE', #100, 6.349999999999999600 ) ;
#89 = APPROVAL_PERSON_ORGANIZATION ( #78, #170, #44 ) ;
#90 = AXIS2_PLACEMENT_3D ( 'NONE', #96, #69, #145 ) ;
#91 = ORIENTED_EDGE ( 'NONE', *, *, #14, .F. ) ;
#92 = FACE_OUTER_BOUND ( 'NONE', #83, .T. ) ;
#93 = CALENDAR_DATE ( 2018, 3, 8 ) ;
#94 = FACE_OUTER_BOUND ( 'NONE', #48, .T. ) ;
#95 = DIRECTION ( 'NONE',  ( -0.0000000000000000000, -0.0000000000000000000, -1.000000000000000000 ) ) ;
#96 = CARTESIAN_POINT ( 'NONE',  ( 0.0000000000000000000, 0.0000000000000000000, 3.174999999999999800 ) ) ;
#97 = PERSON_AND_ORGANIZATION ( #109, #29 ) ;
#98 = CC_DESIGN_SECURITY_CLASSIFICATION ( #46, ( #149 ) ) ;
#99 = CIRCLE ( 'NONE', #81, 6.349999999999999600 ) ;
#100 = AXIS2_PLACEMENT_3D ( 'NONE', #153, #127, #65 ) ;
#101 = ORIENTED_EDGE ( 'NONE', *, *, #14, .T. ) ;
#102 = CALENDAR_DATE ( 2018, 3, 8 ) ;
#103 = CC_DESIGN_APPROVAL ( #35, ( #87 ) ) ;
#104 = LOCAL_TIME ( 14, 41, 4.000000000000000000, #72 ) ;
#105 = CIRCLE ( 'NONE', #31, 6.349999999999999600 ) ;
#106 = DIRECTION ( 'NONE',  ( 0.0000000000000000000, 0.0000000000000000000, 1.000000000000000000 ) ) ;
#107 = PRODUCT_RELATED_PRODUCT_CATEGORY ( 'detail', '', ( #157 ) ) ;
#108 = CARTESIAN_POINT ( 'NONE',  ( 0.0000000000000000000, 0.0000000000000000000, 3.174999999999999800 ) ) ;
#109 = PERSON ( 'UNSPECIFIED', 'UNSPECIFIED', 'UNSPECIFIED', ('UNSPECIFIED'), ('UNSPECIFIED'), ('UNSPECIFIED') ) ;
#110 = PERSON_AND_ORGANIZATION ( #109, #29 ) ;
#111 = APPLICATION_CONTEXT ( 'configuration controlled 3d designs of mechanical parts and assemblies' ) ;
#112 = CARTESIAN_POINT ( 'NONE',  ( 0.0000000000000000000, 0.0000000000000000000, 0.0000000000000000000 ) ) ;
#113 = CC_DESIGN_PERSON_AND_ORGANIZATION_ASSIGNMENT ( #5, #57, ( #87 ) ) ;
#114 = APPROVAL_DATE_TIME ( #86, #35 ) ;
#115 = ADVANCED_FACE ( 'NONE', ( #92 ), #79, .T. ) ;
#116 = PERSON_AND_ORGANIZATION ( #109, #29 ) ;
#117 = LINE ( 'NONE', #51, #47 ) ;
#118 = EDGE_CURVE ( 'NONE', #126, #36, #99, .T. ) ;
#119 = AXIS2_PLACEMENT_3D ( 'NONE', #3, #68, #6 ) ;
#120 = DESIGN_CONTEXT ( 'detailed design', #111, 'design' ) ;
#121 = CIRCLE ( 'NONE', #8, 6.349999999999999600 ) ;
#122 = CALENDAR_DATE ( 2018, 3, 8 ) ;
#123 = CC_DESIGN_DATE_AND_TIME_ASSIGNMENT ( #84, #131, ( #87 ) ) ;
#124 = CARTESIAN_POINT ( 'NONE',  ( 6.349999999999999600, 7.776507174585692200E-016, 3.174999999999999800 ) ) ;
#125 = PLANE ( 'NONE',  #119 ) ;
#126 = VERTEX_POINT ( 'NONE', #168 ) ;
#127 = DIRECTION ( 'NONE',  ( -0.0000000000000000000, -0.0000000000000000000, -1.000000000000000000 ) ) ;
#128 = APPROVAL_ROLE ( '' ) ;
#129 = PERSON_AND_ORGANIZATION_ROLE ( 'design_supplier' ) ;
#130 = COORDINATED_UNIVERSAL_TIME_OFFSET ( 5, 0, .BEHIND. ) ;
#131 = DATE_TIME_ROLE ( 'creation_date' ) ;
#132 = ADVANCED_FACE ( 'NONE', ( #60 ), #26, .T. ) ;
#133 = CC_DESIGN_PERSON_AND_ORGANIZATION_ASSIGNMENT ( #37, #129, ( #149 ) ) ;
#134 = EDGE_LOOP ( 'NONE', ( #173, #175, #62, #137 ) ) ;
#135 = ORIENTED_EDGE ( 'NONE', *, *, #64, .T. ) ;
#136 = CALENDAR_DATE ( 2018, 3, 8 ) ;
#137 = ORIENTED_EDGE ( 'NONE', *, *, #64, .F. ) ;
#138 = ORIENTED_EDGE ( 'NONE', *, *, #27, .F. ) ;
#139 = LOCAL_TIME ( 14, 41, 4.000000000000000000, #39 ) ;
#140 = DIRECTION ( 'NONE',  ( -0.0000000000000000000, -0.0000000000000000000, -1.000000000000000000 ) ) ;
#141 = CARTESIAN_POINT ( 'NONE',  ( 0.0000000000000000000, 0.0000000000000000000, 3.174999999999999800 ) ) ;
#142 = LOCAL_TIME ( 14, 41, 4.000000000000000000, #66 ) ;
#143 = PERSON_AND_ORGANIZATION_ROLE ( 'design_owner' ) ;
#144 = CC_DESIGN_PERSON_AND_ORGANIZATION_ASSIGNMENT ( #110, #143, ( #157 ) ) ;
#145 = DIRECTION ( 'NONE',  ( 1.000000000000000000, 0.0000000000000000000, 0.0000000000000000000 ) ) ;
#146 = CALENDAR_DATE ( 2018, 3, 8 ) ;
#147 = PRODUCT_DEFINITION_SHAPE ( 'NONE', 'NONE',  #87 ) ;
#148 = FACE_OUTER_BOUND ( 'NONE', #167, .T. ) ;
#149 = PRODUCT_DEFINITION_FORMATION_WITH_SPECIFIED_SOURCE ( 'ANY', '', #157, .NOT_KNOWN. ) ;
#150 = CC_DESIGN_APPROVAL ( #170, ( #149 ) ) ;
#151 = DIRECTION ( 'NONE',  ( 1.000000000000000000, 0.0000000000000000000, -0.0000000000000000000 ) ) ;
#152 = MANIFOLD_SOLID_BREP ( 'Boss-Extrude1', #25 ) ;
#153 = CARTESIAN_POINT ( 'NONE',  ( 0.0000000000000000000, 0.0000000000000000000, 3.174999999999999800 ) ) ;
#154 = VECTOR ( 'NONE', #140, 1000.000000000000000 ) ;
#155 = PERSON_AND_ORGANIZATION_ROLE ( 'classification_officer' ) ;
#156 = APPLICATION_PROTOCOL_DEFINITION ( 'international standard', 'config_control_design', 1994, #158 ) ;
#157 = PRODUCT ( 'Web Model 37688_37720', 'Web Model 37688_37720', '', ( #11 ) ) ;
#158 = APPLICATION_CONTEXT ( 'configuration controlled 3d designs of mechanical parts and assemblies' ) ;
#159 = VERTEX_POINT ( 'NONE', #54 ) ;
#160 = LINE ( 'NONE', #124, #154 ) ;
#161 = PERSON_AND_ORGANIZATION ( #109, #29 ) ;
#162 = AXIS2_PLACEMENT_3D ( 'NONE', #141, #17, #151 ) ;
#163 = COORDINATED_UNIVERSAL_TIME_OFFSET ( 5, 0, .BEHIND. ) ;
#164 = UNCERTAINTY_MEASURE_WITH_UNIT (LENGTH_MEASURE( 1.000000000000000100E-005 ), #9, 'distance_accuracy_value', 'NONE');
#165 = DIRECTION ( 'NONE',  ( 1.000000000000000000, 0.0000000000000000000, 0.0000000000000000000 ) ) ;
#166 = CARTESIAN_POINT ( 'NONE',  ( 0.0000000000000000000, 0.0000000000000000000, -3.174999999999999800 ) ) ;
#167 = EDGE_LOOP ( 'NONE', ( #41, #91, #135, #12 ) ) ;
#168 = CARTESIAN_POINT ( 'NONE',  ( 6.349999999999999600, 7.776507174585692200E-016, -3.174999999999999800 ) ) ;
#169 = SHAPE_DEFINITION_REPRESENTATION ( #147, #77 ) ;
#170 = APPROVAL ( #73, 'UNSPECIFIED' ) ;
#171 = AXIS2_PLACEMENT_3D ( 'NONE', #112, #21, #59 ) ;
#172 = CIRCLE ( 'NONE', #90, 6.349999999999999600 ) ;
#173 = ORIENTED_EDGE ( 'NONE', *, *, #174, .F. ) ;
#174 = EDGE_CURVE ( 'NONE', #18, #159, #172, .T. ) ;
#175 = ORIENTED_EDGE ( 'NONE', *, *, #58, .T. ) ;
ENDSEC;
END-ISO-10303-21;
