ISO-10303-21;
HEADER;
FILE_DESCRIPTION (( 'STEP AP203' ),
    '1' );
FILE_NAME ('Web Model 45854_48403.step',
    '2017-03-01T18:33:10',
    ( '' ),
    ( '' ),
    'SwSTEP 2.0',
    'SolidWorks 2016',
    '' );
FILE_SCHEMA (( 'CONFIG_CONTROL_DESIGN' ));
ENDSEC;

DATA;
#1 = PLANE ( 'NONE',  #116 ) ;
#2 = VECTOR ( 'NONE', #184, 1000.000000000000000 ) ;
#3 = EDGE_CURVE ( 'NONE', #213, #100, #101, .T. ) ;
#4 = CARTESIAN_POINT ( 'NONE',  ( 50.00000000000000000, 0.0000000000000000000, 3.000000000000000000 ) ) ;
#5 = DIRECTION ( 'NONE',  ( 0.0000000000000000000, 1.000000000000000000, 0.0000000000000000000 ) ) ;
#6 = APPROVAL_ROLE ( '' ) ;
#7 = LOCAL_TIME ( 13, 33, 10.00000000000000000, #111 ) ;
#8 = PLANE ( 'NONE',  #140 ) ;
#9 = CARTESIAN_POINT ( 'NONE',  ( 0.0000000000000000000, 0.0000000000000000000, 0.0000000000000000000 ) ) ;
#10 = VERTEX_POINT ( 'NONE', #237 ) ;
#11 = CARTESIAN_POINT ( 'NONE',  ( 50.00000000000000000, 50.00000000000000000, 3.000000000000000000 ) ) ;
#12 = VERTEX_POINT ( 'NONE', #83 ) ;
#13 = LINE ( 'NONE', #171, #75 ) ;
#14 = PERSON_AND_ORGANIZATION ( #169, #235 ) ;
#15 = CC_DESIGN_APPROVAL ( #99, ( #46 ) ) ;
#16 = CARTESIAN_POINT ( 'NONE',  ( 50.00000000000000000, 0.0000000000000000000, 0.0000000000000000000 ) ) ;
#17 = ADVANCED_BREP_SHAPE_REPRESENTATION ( 'Web Model 45854_48403', ( #97, #90 ), #132 ) ;
#18 = ORIENTED_EDGE ( 'NONE', *, *, #68, .F. ) ;
#19 = PERSON_AND_ORGANIZATION ( #169, #235 ) ;
#20 = EDGE_CURVE ( 'NONE', #10, #78, #118, .T. ) ;
#21 = CARTESIAN_POINT ( 'NONE',  ( 0.0000000000000000000, 0.0000000000000000000, 3.000000000000000000 ) ) ;
#22 = CC_DESIGN_DATE_AND_TIME_ASSIGNMENT ( #25, #60, ( #64 ) ) ;
#23 = DIRECTION ( 'NONE',  ( -0.0000000000000000000, -1.000000000000000000, -0.0000000000000000000 ) ) ;
#24 = VERTEX_POINT ( 'NONE', #149 ) ;
#25 = DATE_AND_TIME ( #71, #65 ) ;
#26 = PLANE ( 'NONE',  #156 ) ;
#27 = EDGE_CURVE ( 'NONE', #24, #100, #107, .T. ) ;
#28 = PERSON_AND_ORGANIZATION ( #169, #235 ) ;
#29 = ORIENTED_EDGE ( 'NONE', *, *, #91, .F. ) ;
#30 = ADVANCED_FACE ( 'NONE', ( #115 ), #186, .F. ) ;
#31 = PERSON_AND_ORGANIZATION ( #169, #235 ) ;
#32 = APPROVAL ( #41, 'UNSPECIFIED' ) ;
#33 = LINE ( 'NONE', #9, #2 ) ;
#34 = CARTESIAN_POINT ( 'NONE',  ( 50.00000000000000000, 0.0000000000000000000, 3.000000000000000000 ) ) ;
#35 = DIRECTION ( 'NONE',  ( 0.0000000000000000000, 0.0000000000000000000, 1.000000000000000000 ) ) ;
#36 = CC_DESIGN_DATE_AND_TIME_ASSIGNMENT ( #180, #224, ( #93 ) ) ;
#37 = ADVANCED_FACE ( 'NONE', ( #198 ), #1, .F. ) ;
#38 = DIRECTION ( 'NONE',  ( 0.0000000000000000000, -0.0000000000000000000, -1.000000000000000000 ) ) ;
#39 = PERSON_AND_ORGANIZATION ( #169, #235 ) ;
#40 = APPROVAL_PERSON_ORGANIZATION ( #19, #32, #136 ) ;
#41 = APPROVAL_STATUS ( 'not_yet_approved' ) ;
#42 = CARTESIAN_POINT ( 'NONE',  ( 50.00000000000000000, 50.00000000000000000, 3.000000000000000000 ) ) ;
#43 = DIRECTION ( 'NONE',  ( 0.0000000000000000000, -0.0000000000000000000, 1.000000000000000000 ) ) ;
#44 = DIRECTION ( 'NONE',  ( 1.000000000000000000, 0.0000000000000000000, 0.0000000000000000000 ) ) ;
#45 = ADVANCED_FACE ( 'NONE', ( #159 ), #8, .T. ) ;
#46 = PRODUCT_DEFINITION_FORMATION_WITH_SPECIFIED_SOURCE ( 'ANY', '', #192, .NOT_KNOWN. ) ;
#47 = APPLICATION_PROTOCOL_DEFINITION ( 'international standard', 'config_control_design', 1994, #67 ) ;
#48 = VECTOR ( 'NONE', #5, 1000.000000000000000 ) ;
#49 = ORIENTED_EDGE ( 'NONE', *, *, #27, .F. ) ;
#50 = DIRECTION ( 'NONE',  ( 1.000000000000000000, 0.0000000000000000000, 0.0000000000000000000 ) ) ;
#51 = AXIS2_PLACEMENT_3D ( 'NONE', #204, #207, #148 ) ;
#52 = DATE_AND_TIME ( #157, #130 ) ;
#53 = ADVANCED_FACE ( 'NONE', ( #164 ), #137, .F. ) ;
#54 = CC_DESIGN_APPROVAL ( #32, ( #64 ) ) ;
#55 = CARTESIAN_POINT ( 'NONE',  ( 0.0000000000000000000, 50.00000000000000000, 0.0000000000000000000 ) ) ;
#56 = LINE ( 'NONE', #236, #70 ) ;
#57 = VECTOR ( 'NONE', #153, 1000.000000000000000 ) ;
#58 = DATE_AND_TIME ( #187, #7 ) ;
#59 = CC_DESIGN_PERSON_AND_ORGANIZATION_ASSIGNMENT ( #173, #162, ( #64 ) ) ;
#60 = DATE_TIME_ROLE ( 'classification_date' ) ;
#61 = COORDINATED_UNIVERSAL_TIME_OFFSET ( 5, 0, .BEHIND. ) ;
#62 = EDGE_CURVE ( 'NONE', #78, #191, #194, .T. ) ;
#63 = CARTESIAN_POINT ( 'NONE',  ( 0.0000000000000000000, 0.0000000000000000000, 3.000000000000000000 ) ) ;
#64 = SECURITY_CLASSIFICATION ( '', '', #222 ) ;
#65 = LOCAL_TIME ( 13, 33, 10.00000000000000000, #155 ) ;
#66 = CARTESIAN_POINT ( 'NONE',  ( 0.0000000000000000000, 0.0000000000000000000, 3.000000000000000000 ) ) ;
#67 = APPLICATION_CONTEXT ( 'configuration controlled 3d designs of mechanical parts and assemblies' ) ;
#68 = EDGE_CURVE ( 'NONE', #78, #12, #89, .T. ) ;
#69 = EDGE_LOOP ( 'NONE', ( #189, #18, #127, #166 ) ) ;
#70 = VECTOR ( 'NONE', #195, 1000.000000000000000 ) ;
#71 = CALENDAR_DATE ( 2017, 1, 3 ) ;
#72 = CARTESIAN_POINT ( 'NONE',  ( 0.0000000000000000000, 0.0000000000000000000, 3.000000000000000000 ) ) ;
#73 = CC_DESIGN_PERSON_AND_ORGANIZATION_ASSIGNMENT ( #185, #74, ( #192 ) ) ;
#74 = PERSON_AND_ORGANIZATION_ROLE ( 'design_owner' ) ;
#75 = VECTOR ( 'NONE', #124, 1000.000000000000000 ) ;
#76 = CARTESIAN_POINT ( 'NONE',  ( 0.0000000000000000000, 0.0000000000000000000, 3.000000000000000000 ) ) ;
#77 = ORIENTED_EDGE ( 'NONE', *, *, #217, .T. ) ;
#78 = VERTEX_POINT ( 'NONE', #165 ) ;
#79 =( LENGTH_UNIT ( ) NAMED_UNIT ( * ) SI_UNIT ( .MILLI., .METRE. ) );
#80 = VECTOR ( 'NONE', #134, 1000.000000000000000 ) ;
#81 =( NAMED_UNIT ( * ) SI_UNIT ( $, .STERADIAN. ) SOLID_ANGLE_UNIT ( ) );
#82 = PRODUCT_DEFINITION_SHAPE ( 'NONE', 'NONE',  #93 ) ;
#83 = CARTESIAN_POINT ( 'NONE',  ( 0.0000000000000000000, 0.0000000000000000000, 0.0000000000000000000 ) ) ;
#84 = ORIENTED_EDGE ( 'NONE', *, *, #86, .F. ) ;
#85 = LINE ( 'NONE', #160, #203 ) ;
#86 = EDGE_CURVE ( 'NONE', #213, #10, #85, .T. ) ;
#87 = CARTESIAN_POINT ( 'NONE',  ( 50.00000000000000000, 0.0000000000000000000, 3.000000000000000000 ) ) ;
#88 = DIRECTION ( 'NONE',  ( 0.0000000000000000000, 0.0000000000000000000, -1.000000000000000000 ) ) ;
#89 = LINE ( 'NONE', #76, #57 ) ;
#90 = AXIS2_PLACEMENT_3D ( 'NONE', #202, #35, #196 ) ;
#91 = EDGE_CURVE ( 'NONE', #191, #213, #174, .T. ) ;
#92 = APPROVAL_PERSON_ORGANIZATION ( #28, #226, #6 ) ;
#93 = PRODUCT_DEFINITION ( 'UNKNOWN', '', #46, #96 ) ;
#94 = ORIENTED_EDGE ( 'NONE', *, *, #131, .F. ) ;
#95 = SHAPE_DEFINITION_REPRESENTATION ( #82, #17 ) ;
#96 = DESIGN_CONTEXT ( 'detailed design', #223, 'design' ) ;
#97 = MANIFOLD_SOLID_BREP ( 'Extrude1', #104 ) ;
#98 = APPROVAL_DATE_TIME ( #117, #226 ) ;
#99 = APPROVAL ( #182, 'UNSPECIFIED' ) ;
#100 = VERTEX_POINT ( 'NONE', #228 ) ;
#101 = LINE ( 'NONE', #42, #220 ) ;
#102 = DIRECTION ( 'NONE',  ( -1.000000000000000000, 0.0000000000000000000, 0.0000000000000000000 ) ) ;
#103 = LINE ( 'NONE', #154, #121 ) ;
#104 = CLOSED_SHELL ( 'NONE', ( #175, #30, #37, #210, #53, #45 ) ) ;
#105 = CARTESIAN_POINT ( 'NONE',  ( 0.0000000000000000000, 50.00000000000000000, 0.0000000000000000000 ) ) ;
#106 = FACE_OUTER_BOUND ( 'NONE', #69, .T. ) ;
#107 = LINE ( 'NONE', #16, #48 ) ;
#108 = AXIS2_PLACEMENT_3D ( 'NONE', #63, #211, #43 ) ;
#109 = ORIENTED_EDGE ( 'NONE', *, *, #68, .T. ) ;
#110 = APPROVAL_DATE_TIME ( #52, #32 ) ;
#111 = COORDINATED_UNIVERSAL_TIME_OFFSET ( 5, 0, .BEHIND. ) ;
#112 = PERSON_AND_ORGANIZATION ( #169, #235 ) ;
#113 = EDGE_LOOP ( 'NONE', ( #212, #94, #190, #109 ) ) ;
#114 = ORIENTED_EDGE ( 'NONE', *, *, #91, .T. ) ;
#115 = FACE_OUTER_BOUND ( 'NONE', #113, .T. ) ;
#116 = AXIS2_PLACEMENT_3D ( 'NONE', #87, #102, #234 ) ;
#117 = DATE_AND_TIME ( #233, #146 ) ;
#118 = LINE ( 'NONE', #66, #152 ) ;
#119 = EDGE_LOOP ( 'NONE', ( #123, #209, #114, #205 ) ) ;
#120 = ORIENTED_EDGE ( 'NONE', *, *, #176, .F. ) ;
#121 = VECTOR ( 'NONE', #144, 1000.000000000000000 ) ;
#122 = DIRECTION ( 'NONE',  ( -1.000000000000000000, 0.0000000000000000000, -0.0000000000000000000 ) ) ;
#123 = ORIENTED_EDGE ( 'NONE', *, *, #20, .T. ) ;
#124 = DIRECTION ( 'NONE',  ( 1.000000000000000000, 0.0000000000000000000, 0.0000000000000000000 ) ) ;
#125 = UNCERTAINTY_MEASURE_WITH_UNIT (LENGTH_MEASURE( 1.000000000000000100E-005 ), #79, 'distance_accuracy_value', 'NONE');
#126 = EDGE_LOOP ( 'NONE', ( #77, #142, #84, #219 ) ) ;
#127 = ORIENTED_EDGE ( 'NONE', *, *, #20, .F. ) ;
#128 = CC_DESIGN_PERSON_AND_ORGANIZATION_ASSIGNMENT ( #14, #231, ( #46 ) ) ;
#129 = COORDINATED_UNIVERSAL_TIME_OFFSET ( 5, 0, .BEHIND. ) ;
#130 = LOCAL_TIME ( 13, 33, 10.00000000000000000, #230 ) ;
#131 = EDGE_CURVE ( 'NONE', #191, #24, #103, .T. ) ;
#132 =( GEOMETRIC_REPRESENTATION_CONTEXT ( 3 ) GLOBAL_UNCERTAINTY_ASSIGNED_CONTEXT ( ( #125 ) ) GLOBAL_UNIT_ASSIGNED_CONTEXT ( ( #79, #193, #81 ) ) REPRESENTATION_CONTEXT ( 'NONE', 'WORKASPACE' ) );
#133 = PERSON_AND_ORGANIZATION_ROLE ( 'design_supplier' ) ;
#134 = DIRECTION ( 'NONE',  ( 0.0000000000000000000, 1.000000000000000000, 0.0000000000000000000 ) ) ;
#135 = MECHANICAL_CONTEXT ( 'NONE', #67, 'mechanical' ) ;
#136 = APPROVAL_ROLE ( '' ) ;
#137 = PLANE ( 'NONE',  #51 ) ;
#138 = CC_DESIGN_SECURITY_CLASSIFICATION ( #64, ( #46 ) ) ;
#139 = CC_DESIGN_APPROVAL ( #226, ( #93 ) ) ;
#140 = AXIS2_PLACEMENT_3D ( 'NONE', #105, #88, #122 ) ;
#141 = FACE_OUTER_BOUND ( 'NONE', #126, .T. ) ;
#142 = ORIENTED_EDGE ( 'NONE', *, *, #147, .F. ) ;
#143 = APPLICATION_PROTOCOL_DEFINITION ( 'international standard', 'config_control_design', 1994, #223 ) ;
#144 = DIRECTION ( 'NONE',  ( -0.0000000000000000000, -0.0000000000000000000, -1.000000000000000000 ) ) ;
#145 = VECTOR ( 'NONE', #151, 1000.000000000000000 ) ;
#146 = LOCAL_TIME ( 13, 33, 10.00000000000000000, #61 ) ;
#147 = EDGE_CURVE ( 'NONE', #10, #218, #56, .T. ) ;
#148 = DIRECTION ( 'NONE',  ( -1.000000000000000000, 0.0000000000000000000, -0.0000000000000000000 ) ) ;
#149 = CARTESIAN_POINT ( 'NONE',  ( 50.00000000000000000, 0.0000000000000000000, 0.0000000000000000000 ) ) ;
#150 = APPROVAL_ROLE ( '' ) ;
#151 = DIRECTION ( 'NONE',  ( -1.000000000000000000, -0.0000000000000000000, -0.0000000000000000000 ) ) ;
#152 = VECTOR ( 'NONE', #23, 1000.000000000000000 ) ;
#153 = DIRECTION ( 'NONE',  ( -0.0000000000000000000, -0.0000000000000000000, -1.000000000000000000 ) ) ;
#154 = CARTESIAN_POINT ( 'NONE',  ( 50.00000000000000000, 0.0000000000000000000, 3.000000000000000000 ) ) ;
#155 = COORDINATED_UNIVERSAL_TIME_OFFSET ( 5, 0, .BEHIND. ) ;
#156 = AXIS2_PLACEMENT_3D ( 'NONE', #72, #44, #208 ) ;
#157 = CALENDAR_DATE ( 2017, 1, 3 ) ;
#158 = PERSON_AND_ORGANIZATION_ROLE ( 'creator' ) ;
#159 = FACE_OUTER_BOUND ( 'NONE', #200, .T. ) ;
#160 = CARTESIAN_POINT ( 'NONE',  ( 0.0000000000000000000, 50.00000000000000000, 3.000000000000000000 ) ) ;
#161 = APPROVAL_PERSON_ORGANIZATION ( #112, #99, #150 ) ;
#162 = PERSON_AND_ORGANIZATION_ROLE ( 'classification_officer' ) ;
#163 = ORIENTED_EDGE ( 'NONE', *, *, #197, .F. ) ;
#164 = FACE_OUTER_BOUND ( 'NONE', #119, .T. ) ;
#165 = CARTESIAN_POINT ( 'NONE',  ( 0.0000000000000000000, 0.0000000000000000000, 3.000000000000000000 ) ) ;
#166 = ORIENTED_EDGE ( 'NONE', *, *, #147, .T. ) ;
#167 = ORIENTED_EDGE ( 'NONE', *, *, #27, .T. ) ;
#168 = PLANE ( 'NONE',  #188 ) ;
#169 = PERSON ( 'UNSPECIFIED', 'UNSPECIFIED', 'UNSPECIFIED', ('UNSPECIFIED'), ('UNSPECIFIED'), ('UNSPECIFIED') ) ;
#170 = CC_DESIGN_PERSON_AND_ORGANIZATION_ASSIGNMENT ( #39, #158, ( #93 ) ) ;
#171 = CARTESIAN_POINT ( 'NONE',  ( 0.0000000000000000000, 0.0000000000000000000, 0.0000000000000000000 ) ) ;
#172 = DIRECTION ( 'NONE',  ( -0.0000000000000000000, -0.0000000000000000000, -1.000000000000000000 ) ) ;
#173 = PERSON_AND_ORGANIZATION ( #169, #235 ) ;
#174 = LINE ( 'NONE', #4, #80 ) ;
#175 = ADVANCED_FACE ( 'NONE', ( #106 ), #26, .F. ) ;
#176 = EDGE_CURVE ( 'NONE', #12, #24, #13, .T. ) ;
#177 = DIRECTION ( 'NONE',  ( -1.000000000000000000, -0.0000000000000000000, -0.0000000000000000000 ) ) ;
#178 = CARTESIAN_POINT ( 'NONE',  ( 0.0000000000000000000, 50.00000000000000000, 0.0000000000000000000 ) ) ;
#179 = DIRECTION ( 'NONE',  ( 0.0000000000000000000, -1.000000000000000000, 0.0000000000000000000 ) ) ;
#180 = DATE_AND_TIME ( #214, #229 ) ;
#181 = APPROVAL_DATE_TIME ( #58, #99 ) ;
#182 = APPROVAL_STATUS ( 'not_yet_approved' ) ;
#183 = ORIENTED_EDGE ( 'NONE', *, *, #131, .T. ) ;
#184 = DIRECTION ( 'NONE',  ( -0.0000000000000000000, -1.000000000000000000, -0.0000000000000000000 ) ) ;
#185 = PERSON_AND_ORGANIZATION ( #169, #235 ) ;
#186 = PLANE ( 'NONE',  #108 ) ;
#187 = CALENDAR_DATE ( 2017, 1, 3 ) ;
#188 = AXIS2_PLACEMENT_3D ( 'NONE', #221, #179, #38 ) ;
#189 = ORIENTED_EDGE ( 'NONE', *, *, #197, .T. ) ;
#190 = ORIENTED_EDGE ( 'NONE', *, *, #62, .F. ) ;
#191 = VERTEX_POINT ( 'NONE', #34 ) ;
#192 = PRODUCT ( 'Web Model 45854_48403', 'Web Model 45854_48403', '', ( #135 ) ) ;
#193 =( NAMED_UNIT ( * ) PLANE_ANGLE_UNIT ( ) SI_UNIT ( $, .RADIAN. ) );
#194 = LINE ( 'NONE', #21, #227 ) ;
#195 = DIRECTION ( 'NONE',  ( -0.0000000000000000000, -0.0000000000000000000, -1.000000000000000000 ) ) ;
#196 = DIRECTION ( 'NONE',  ( 1.000000000000000000, 0.0000000000000000000, 0.0000000000000000000 ) ) ;
#197 = EDGE_CURVE ( 'NONE', #218, #12, #33, .T. ) ;
#198 = FACE_OUTER_BOUND ( 'NONE', #199, .T. ) ;
#199 = EDGE_LOOP ( 'NONE', ( #167, #201, #29, #183 ) ) ;
#200 = EDGE_LOOP ( 'NONE', ( #163, #216, #49, #120 ) ) ;
#201 = ORIENTED_EDGE ( 'NONE', *, *, #3, .F. ) ;
#202 = CARTESIAN_POINT ( 'NONE',  ( 0.0000000000000000000, 0.0000000000000000000, 0.0000000000000000000 ) ) ;
#203 = VECTOR ( 'NONE', #177, 1000.000000000000000 ) ;
#204 = CARTESIAN_POINT ( 'NONE',  ( 0.0000000000000000000, 50.00000000000000000, 3.000000000000000000 ) ) ;
#205 = ORIENTED_EDGE ( 'NONE', *, *, #86, .T. ) ;
#206 = LINE ( 'NONE', #55, #145 ) ;
#207 = DIRECTION ( 'NONE',  ( 0.0000000000000000000, 0.0000000000000000000, -1.000000000000000000 ) ) ;
#208 = DIRECTION ( 'NONE',  ( 0.0000000000000000000, 0.0000000000000000000, -1.000000000000000000 ) ) ;
#209 = ORIENTED_EDGE ( 'NONE', *, *, #62, .T. ) ;
#210 = ADVANCED_FACE ( 'NONE', ( #141 ), #168, .F. ) ;
#211 = DIRECTION ( 'NONE',  ( 0.0000000000000000000, 1.000000000000000000, 0.0000000000000000000 ) ) ;
#212 = ORIENTED_EDGE ( 'NONE', *, *, #176, .T. ) ;
#213 = VERTEX_POINT ( 'NONE', #11 ) ;
#214 = CALENDAR_DATE ( 2017, 1, 3 ) ;
#215 = CC_DESIGN_PERSON_AND_ORGANIZATION_ASSIGNMENT ( #31, #133, ( #46 ) ) ;
#216 = ORIENTED_EDGE ( 'NONE', *, *, #217, .F. ) ;
#217 = EDGE_CURVE ( 'NONE', #100, #218, #206, .T. ) ;
#218 = VERTEX_POINT ( 'NONE', #178 ) ;
#219 = ORIENTED_EDGE ( 'NONE', *, *, #3, .T. ) ;
#220 = VECTOR ( 'NONE', #172, 1000.000000000000000 ) ;
#221 = CARTESIAN_POINT ( 'NONE',  ( 0.0000000000000000000, 50.00000000000000000, 3.000000000000000000 ) ) ;
#222 = SECURITY_CLASSIFICATION_LEVEL ( 'unclassified' ) ;
#223 = APPLICATION_CONTEXT ( 'configuration controlled 3d designs of mechanical parts and assemblies' ) ;
#224 = DATE_TIME_ROLE ( 'creation_date' ) ;
#225 = PRODUCT_RELATED_PRODUCT_CATEGORY ( 'detail', '', ( #192 ) ) ;
#226 = APPROVAL ( #232, 'UNSPECIFIED' ) ;
#227 = VECTOR ( 'NONE', #50, 1000.000000000000000 ) ;
#228 = CARTESIAN_POINT ( 'NONE',  ( 50.00000000000000000, 50.00000000000000000, 0.0000000000000000000 ) ) ;
#229 = LOCAL_TIME ( 13, 33, 10.00000000000000000, #129 ) ;
#230 = COORDINATED_UNIVERSAL_TIME_OFFSET ( 5, 0, .BEHIND. ) ;
#231 = PERSON_AND_ORGANIZATION_ROLE ( 'creator' ) ;
#232 = APPROVAL_STATUS ( 'not_yet_approved' ) ;
#233 = CALENDAR_DATE ( 2017, 1, 3 ) ;
#234 = DIRECTION ( 'NONE',  ( 0.0000000000000000000, 0.0000000000000000000, 1.000000000000000000 ) ) ;
#235 = ORGANIZATION ( 'UNSPECIFIED', 'UNSPECIFIED', '' ) ;
#236 = CARTESIAN_POINT ( 'NONE',  ( 0.0000000000000000000, 50.00000000000000000, 3.000000000000000000 ) ) ;
#237 = CARTESIAN_POINT ( 'NONE',  ( 0.0000000000000000000, 50.00000000000000000, 3.000000000000000000 ) ) ;
ENDSEC;
END-ISO-10303-21;
