ISO-10303-21;
HEADER;
FILE_DESCRIPTION (( 'STEP AP203' ),
    '1' );
FILE_NAME ('Web Model 55142_55142.step',
    '2018-04-17T20:02:58',
    ( '' ),
    ( '' ),
    'SwSTEP 2.0',
    'SolidWorks 2016',
    '' );
FILE_SCHEMA (( 'CONFIG_CONTROL_DESIGN' ));
ENDSEC;

DATA;
#1 = LINE ( 'NONE', #190, #147 ) ;
#2 = EDGE_CURVE ( 'NONE', #197, #163, #91, .T. ) ;
#3 = ORGANIZATION ( 'UNSPECIFIED', 'UNSPECIFIED', '' ) ;
#4 = LINE ( 'NONE', #61, #42 ) ;
#5 = ORIENTED_EDGE ( 'NONE', *, *, #96, .F. ) ;
#6 = DIRECTION ( 'NONE',  ( 0.0000000000000000000, 0.0000000000000000000, 1.000000000000000000 ) ) ;
#7 = CARTESIAN_POINT ( 'NONE',  ( 1.500000000000000000, 37.49999999999998600, 25.00000000000000700 ) ) ;
#8 = VERTEX_POINT ( 'NONE', #112 ) ;
#9 = DIRECTION ( 'NONE',  ( -0.0000000000000000000, -2.775557561562891400E-016, 1.000000000000000000 ) ) ;
#10 = AXIS2_PLACEMENT_3D ( 'NONE', #85, #133, #86 ) ;
#11 = APPLICATION_CONTEXT ( 'configuration controlled 3d designs of mechanical parts and assemblies' ) ;
#12 = VERTEX_POINT ( 'NONE', #75 ) ;
#13 = APPROVAL ( #177, 'UNSPECIFIED' ) ;
#14 = DATE_AND_TIME ( #127, #76 ) ;
#15 = CALENDAR_DATE ( 2018, 17, 4 ) ;
#16 = PERSON_AND_ORGANIZATION ( #232, #3 ) ;
#17 = LINE ( 'NONE', #46, #231 ) ;
#18 = PERSON_AND_ORGANIZATION ( #232, #3 ) ;
#19 = ORIENTED_EDGE ( 'NONE', *, *, #214, .F. ) ;
#20 = CARTESIAN_POINT ( 'NONE',  ( 1.500000000000000000, -37.50000000000000000, 24.99999999999999300 ) ) ;
#21 = LINE ( 'NONE', #20, #178 ) ;
#22 = ORIENTED_EDGE ( 'NONE', *, *, #102, .T. ) ;
#23 = MANIFOLD_SOLID_BREP ( 'Boss-Extrude1', #180 ) ;
#24 = DIRECTION ( 'NONE',  ( 0.0000000000000000000, 0.0000000000000000000, 1.000000000000000000 ) ) ;
#25 = DATE_AND_TIME ( #15, #235 ) ;
#26 = DIRECTION ( 'NONE',  ( -1.000000000000000000, -0.0000000000000000000, -0.0000000000000000000 ) ) ;
#27 = ORIENTED_EDGE ( 'NONE', *, *, #181, .F. ) ;
#28 = CC_DESIGN_PERSON_AND_ORGANIZATION_ASSIGNMENT ( #34, #142, ( #146 ) ) ;
#29 = CARTESIAN_POINT ( 'NONE',  ( -1.500000000000000000, -37.50000000000000000, -24.99999999999999300 ) ) ;
#30 = DIRECTION ( 'NONE',  ( 0.0000000000000000000, 0.0000000000000000000, -1.000000000000000000 ) ) ;
#31 = ORIENTED_EDGE ( 'NONE', *, *, #32, .T. ) ;
#32 = EDGE_CURVE ( 'NONE', #8, #168, #21, .T. ) ;
#33 = APPROVAL_STATUS ( 'not_yet_approved' ) ;
#34 = PERSON_AND_ORGANIZATION ( #232, #3 ) ;
#35 = ORIENTED_EDGE ( 'NONE', *, *, #52, .F. ) ;
#36 = COORDINATED_UNIVERSAL_TIME_OFFSET ( 5, 0, .BEHIND. ) ;
#37 = PRODUCT_DEFINITION_FORMATION_WITH_SPECIFIED_SOURCE ( 'ANY', '', #219, .NOT_KNOWN. ) ;
#38 = CALENDAR_DATE ( 2018, 17, 4 ) ;
#39 = LINE ( 'NONE', #206, #144 ) ;
#40 = CARTESIAN_POINT ( 'NONE',  ( 1.500000000000000000, -37.50000000000000000, 24.99999999999999300 ) ) ;
#41 = APPROVAL ( #33, 'UNSPECIFIED' ) ;
#42 = VECTOR ( 'NONE', #211, 1000.000000000000000 ) ;
#43 = DIRECTION ( 'NONE',  ( -1.000000000000000000, -0.0000000000000000000, -0.0000000000000000000 ) ) ;
#44 = EDGE_CURVE ( 'NONE', #168, #12, #186, .T. ) ;
#45 = CARTESIAN_POINT ( 'NONE',  ( 1.500000000000000000, -37.50000000000000000, -24.99999999999999300 ) ) ;
#46 = CARTESIAN_POINT ( 'NONE',  ( 1.500000000000000000, 37.49999999999998600, 25.00000000000000700 ) ) ;
#47 = APPROVAL_ROLE ( '' ) ;
#48 = APPROVAL_PERSON_ORGANIZATION ( #172, #13, #47 ) ;
#49 = APPROVAL_ROLE ( '' ) ;
#50 = EDGE_CURVE ( 'NONE', #82, #197, #39, .T. ) ;
#51 = ADVANCED_BREP_SHAPE_REPRESENTATION ( 'Web Model 55142_55142', ( #23, #10 ), #135 ) ;
#52 = EDGE_CURVE ( 'NONE', #168, #125, #77, .T. ) ;
#53 = VECTOR ( 'NONE', #97, 1000.000000000000000 ) ;
#54 = CC_DESIGN_APPROVAL ( #41, ( #73 ) ) ;
#55 = ORIENTED_EDGE ( 'NONE', *, *, #102, .F. ) ;
#56 = LINE ( 'NONE', #228, #230 ) ;
#57 = CARTESIAN_POINT ( 'NONE',  ( -1.500000000000000000, -37.50000000000000000, 24.99999999999999300 ) ) ;
#58 = ORIENTED_EDGE ( 'NONE', *, *, #192, .T. ) ;
#59 = EDGE_CURVE ( 'NONE', #12, #82, #17, .T. ) ;
#60 = CARTESIAN_POINT ( 'NONE',  ( -1.500000000000000000, 37.49999999999998600, 25.00000000000000700 ) ) ;
#61 = CARTESIAN_POINT ( 'NONE',  ( 1.500000000000000000, -37.50000000000000000, 24.99999999999999300 ) ) ;
#62 = CC_DESIGN_PERSON_AND_ORGANIZATION_ASSIGNMENT ( #207, #161, ( #37 ) ) ;
#63 = CARTESIAN_POINT ( 'NONE',  ( 1.500000000000000000, -37.50000000000000000, 24.99999999999999300 ) ) ;
#64 =( NAMED_UNIT ( * ) PLANE_ANGLE_UNIT ( ) SI_UNIT ( $, .RADIAN. ) );
#65 = APPROVAL_DATE_TIME ( #166, #196 ) ;
#66 = PERSON_AND_ORGANIZATION_ROLE ( 'classification_officer' ) ;
#67 = PRODUCT_RELATED_PRODUCT_CATEGORY ( 'detail', '', ( #219 ) ) ;
#68 = PRODUCT_DEFINITION_SHAPE ( 'NONE', 'NONE',  #146 ) ;
#69 = COORDINATED_UNIVERSAL_TIME_OFFSET ( 5, 0, .BEHIND. ) ;
#70 = ORIENTED_EDGE ( 'NONE', *, *, #181, .T. ) ;
#71 = LOCAL_TIME ( 16, 2, 58.00000000000000000, #36 ) ;
#72 = ORIENTED_EDGE ( 'NONE', *, *, #59, .F. ) ;
#73 = SECURITY_CLASSIFICATION ( '', '', #121 ) ;
#74 = ADVANCED_FACE ( 'NONE', ( #104 ), #100, .F. ) ;
#75 = CARTESIAN_POINT ( 'NONE',  ( 1.500000000000000000, 37.50000000000000000, -24.99999999999999300 ) ) ;
#76 = LOCAL_TIME ( 16, 2, 58.00000000000000000, #162 ) ;
#77 = LINE ( 'NONE', #119, #167 ) ;
#78 = DIRECTION ( 'NONE',  ( 0.0000000000000000000, 1.000000000000000000, 1.850371707708594600E-016 ) ) ;
#79 = UNCERTAINTY_MEASURE_WITH_UNIT (LENGTH_MEASURE( 1.000000000000000100E-005 ), #195, 'distance_accuracy_value', 'NONE');
#80 = CC_DESIGN_APPROVAL ( #13, ( #37 ) ) ;
#81 = CARTESIAN_POINT ( 'NONE',  ( -1.500000000000000000, 0.0000000000000000000, 0.0000000000000000000 ) ) ;
#82 = VERTEX_POINT ( 'NONE', #7 ) ;
#83 = PLANE ( 'NONE',  #126 ) ;
#84 = DIRECTION ( 'NONE',  ( 0.0000000000000000000, 1.000000000000000000, 0.0000000000000000000 ) ) ;
#85 = CARTESIAN_POINT ( 'NONE',  ( 0.0000000000000000000, 0.0000000000000000000, 0.0000000000000000000 ) ) ;
#86 = DIRECTION ( 'NONE',  ( 1.000000000000000000, 0.0000000000000000000, 0.0000000000000000000 ) ) ;
#87 = MECHANICAL_CONTEXT ( 'NONE', #11, 'mechanical' ) ;
#88 = EDGE_CURVE ( 'NONE', #8, #163, #225, .T. ) ;
#89 = ORIENTED_EDGE ( 'NONE', *, *, #88, .T. ) ;
#90 = SHAPE_DEFINITION_REPRESENTATION ( #68, #51 ) ;
#91 = LINE ( 'NONE', #57, #108 ) ;
#92 = EDGE_LOOP ( 'NONE', ( #105, #27, #208, #148 ) ) ;
#93 = LOCAL_TIME ( 16, 2, 58.00000000000000000, #129 ) ;
#94 = ORIENTED_EDGE ( 'NONE', *, *, #2, .T. ) ;
#95 = DIRECTION ( 'NONE',  ( -1.000000000000000000, 0.0000000000000000000, 0.0000000000000000000 ) ) ;
#96 = EDGE_CURVE ( 'NONE', #125, #153, #221, .T. ) ;
#97 = DIRECTION ( 'NONE',  ( -1.000000000000000000, -0.0000000000000000000, -0.0000000000000000000 ) ) ;
#98 = CARTESIAN_POINT ( 'NONE',  ( -1.500000000000000000, -37.50000000000000000, -24.99999999999999300 ) ) ;
#99 = CC_DESIGN_PERSON_AND_ORGANIZATION_ASSIGNMENT ( #183, #123, ( #219 ) ) ;
#100 = PLANE ( 'NONE',  #109 ) ;
#101 = ORIENTED_EDGE ( 'NONE', *, *, #32, .F. ) ;
#102 = EDGE_CURVE ( 'NONE', #82, #8, #4, .T. ) ;
#103 =( NAMED_UNIT ( * ) SI_UNIT ( $, .STERADIAN. ) SOLID_ANGLE_UNIT ( ) );
#104 = FACE_OUTER_BOUND ( 'NONE', #130, .T. ) ;
#105 = ORIENTED_EDGE ( 'NONE', *, *, #96, .T. ) ;
#106 = PERSON_AND_ORGANIZATION_ROLE ( 'creator' ) ;
#107 = CC_DESIGN_DATE_AND_TIME_ASSIGNMENT ( #174, #194, ( #73 ) ) ;
#108 = VECTOR ( 'NONE', #152, 1000.000000000000000 ) ;
#109 = AXIS2_PLACEMENT_3D ( 'NONE', #63, #156, #159 ) ;
#110 = ADVANCED_FACE ( 'NONE', ( #169 ), #83, .F. ) ;
#111 = AXIS2_PLACEMENT_3D ( 'NONE', #45, #118, #120 ) ;
#112 = CARTESIAN_POINT ( 'NONE',  ( 1.500000000000000000, -37.50000000000000000, 24.99999999999999300 ) ) ;
#113 = APPROVAL_DATE_TIME ( #158, #13 ) ;
#114 = VECTOR ( 'NONE', #84, 1000.000000000000000 ) ;
#115 = DESIGN_CONTEXT ( 'detailed design', #141, 'design' ) ;
#116 = CARTESIAN_POINT ( 'NONE',  ( 1.500000000000000000, -37.50000000000000000, 24.99999999999999300 ) ) ;
#117 = EDGE_LOOP ( 'NONE', ( #58, #199, #72, #70 ) ) ;
#118 = DIRECTION ( 'NONE',  ( 0.0000000000000000000, 0.0000000000000000000, 1.000000000000000000 ) ) ;
#119 = CARTESIAN_POINT ( 'NONE',  ( 1.500000000000000000, -37.50000000000000000, -24.99999999999999300 ) ) ;
#120 = DIRECTION ( 'NONE',  ( 1.000000000000000000, 0.0000000000000000000, -0.0000000000000000000 ) ) ;
#121 = SECURITY_CLASSIFICATION_LEVEL ( 'unclassified' ) ;
#122 = EDGE_LOOP ( 'NONE', ( #22, #31, #164, #220 ) ) ;
#123 = PERSON_AND_ORGANIZATION_ROLE ( 'design_owner' ) ;
#124 = AXIS2_PLACEMENT_3D ( 'NONE', #191, #95, #24 ) ;
#125 = VERTEX_POINT ( 'NONE', #98 ) ;
#126 = AXIS2_PLACEMENT_3D ( 'NONE', #212, #157, #132 ) ;
#127 = CALENDAR_DATE ( 2018, 17, 4 ) ;
#128 = COORDINATED_UNIVERSAL_TIME_OFFSET ( 5, 0, .BEHIND. ) ;
#129 = COORDINATED_UNIVERSAL_TIME_OFFSET ( 5, 0, .BEHIND. ) ;
#130 = EDGE_LOOP ( 'NONE', ( #193, #35, #101, #89 ) ) ;
#131 = CC_DESIGN_SECURITY_CLASSIFICATION ( #73, ( #37 ) ) ;
#132 = DIRECTION ( 'NONE',  ( 0.0000000000000000000, 2.775557561562890900E-016, -1.000000000000000000 ) ) ;
#133 = DIRECTION ( 'NONE',  ( 0.0000000000000000000, 0.0000000000000000000, 1.000000000000000000 ) ) ;
#134 = FACE_OUTER_BOUND ( 'NONE', #175, .T. ) ;
#135 =( GEOMETRIC_REPRESENTATION_CONTEXT ( 3 ) GLOBAL_UNCERTAINTY_ASSIGNED_CONTEXT ( ( #79 ) ) GLOBAL_UNIT_ASSIGNED_CONTEXT ( ( #195, #64, #103 ) ) REPRESENTATION_CONTEXT ( 'NONE', 'WORKASPACE' ) );
#136 = PLANE ( 'NONE',  #124 ) ;
#137 = CARTESIAN_POINT ( 'NONE',  ( 1.500000000000000000, 37.50000000000000000, -24.99999999999999300 ) ) ;
#138 = CARTESIAN_POINT ( 'NONE',  ( 1.500000000000000000, -37.50000000000000000, -24.99999999999999300 ) ) ;
#139 = FACE_OUTER_BOUND ( 'NONE', #200, .T. ) ;
#140 = FACE_OUTER_BOUND ( 'NONE', #92, .T. ) ;
#141 = APPLICATION_CONTEXT ( 'configuration controlled 3d designs of mechanical parts and assemblies' ) ;
#142 = PERSON_AND_ORGANIZATION_ROLE ( 'creator' ) ;
#143 = PERSON_AND_ORGANIZATION ( #232, #3 ) ;
#144 = VECTOR ( 'NONE', #210, 1000.000000000000000 ) ;
#145 = APPLICATION_PROTOCOL_DEFINITION ( 'international standard', 'config_control_design', 1994, #11 ) ;
#146 = PRODUCT_DEFINITION ( 'UNKNOWN', '', #37, #115 ) ;
#147 = VECTOR ( 'NONE', #227, 1000.000000000000000 ) ;
#148 = ORIENTED_EDGE ( 'NONE', *, *, #52, .T. ) ;
#149 = APPROVAL_PERSON_ORGANIZATION ( #143, #196, #49 ) ;
#150 = AXIS2_PLACEMENT_3D ( 'NONE', #40, #189, #78 ) ;
#151 = VECTOR ( 'NONE', #43, 1000.000000000000000 ) ;
#152 = DIRECTION ( 'NONE',  ( -0.0000000000000000000, -1.000000000000000000, -1.850371707708594600E-016 ) ) ;
#153 = VERTEX_POINT ( 'NONE', #213 ) ;
#154 = PLANE ( 'NONE',  #150 ) ;
#155 = DIRECTION ( 'NONE',  ( -1.000000000000000000, 0.0000000000000000000, 0.0000000000000000000 ) ) ;
#156 = DIRECTION ( 'NONE',  ( -0.0000000000000000000, 1.000000000000000000, 0.0000000000000000000 ) ) ;
#157 = DIRECTION ( 'NONE',  ( 0.0000000000000000000, -1.000000000000000000, -2.775557561562890900E-016 ) ) ;
#158 = DATE_AND_TIME ( #215, #203 ) ;
#159 = DIRECTION ( 'NONE',  ( 0.0000000000000000000, -0.0000000000000000000, 1.000000000000000000 ) ) ;
#160 = APPROVAL_STATUS ( 'not_yet_approved' ) ;
#161 = PERSON_AND_ORGANIZATION_ROLE ( 'design_supplier' ) ;
#162 = COORDINATED_UNIVERSAL_TIME_OFFSET ( 5, 0, .BEHIND. ) ;
#163 = VERTEX_POINT ( 'NONE', #229 ) ;
#164 = ORIENTED_EDGE ( 'NONE', *, *, #44, .T. ) ;
#165 = APPLICATION_PROTOCOL_DEFINITION ( 'international standard', 'config_control_design', 1994, #141 ) ;
#166 = DATE_AND_TIME ( #38, #93 ) ;
#167 = VECTOR ( 'NONE', #26, 1000.000000000000000 ) ;
#168 = VERTEX_POINT ( 'NONE', #138 ) ;
#169 = FACE_OUTER_BOUND ( 'NONE', #117, .T. ) ;
#170 = CARTESIAN_POINT ( 'NONE',  ( 1.500000000000000000, -37.50000000000000000, -24.99999999999999300 ) ) ;
#171 = ADVANCED_FACE ( 'NONE', ( #134 ), #226, .T. ) ;
#172 = PERSON_AND_ORGANIZATION ( #232, #3 ) ;
#173 = CC_DESIGN_PERSON_AND_ORGANIZATION_ASSIGNMENT ( #16, #106, ( #37 ) ) ;
#174 = DATE_AND_TIME ( #202, #71 ) ;
#175 = EDGE_LOOP ( 'NONE', ( #234, #236, #5, #19 ) ) ;
#176 = PLANE ( 'NONE',  #111 ) ;
#177 = APPROVAL_STATUS ( 'not_yet_approved' ) ;
#178 = VECTOR ( 'NONE', #205, 1000.000000000000000 ) ;
#179 = DATE_TIME_ROLE ( 'creation_date' ) ;
#180 = CLOSED_SHELL ( 'NONE', ( #222, #74, #188, #110, #204, #171 ) ) ;
#181 = EDGE_CURVE ( 'NONE', #12, #153, #185, .T. ) ;
#182 = APPROVAL_PERSON_ORGANIZATION ( #224, #41, #217 ) ;
#183 = PERSON_AND_ORGANIZATION ( #232, #3 ) ;
#184 = CC_DESIGN_APPROVAL ( #196, ( #146 ) ) ;
#185 = LINE ( 'NONE', #137, #151 ) ;
#186 = LINE ( 'NONE', #170, #216 ) ;
#187 = DIRECTION ( 'NONE',  ( 0.0000000000000000000, 1.000000000000000000, 0.0000000000000000000 ) ) ;
#188 = ADVANCED_FACE ( 'NONE', ( #140 ), #176, .F. ) ;
#189 = DIRECTION ( 'NONE',  ( 0.0000000000000000000, 1.850371707708594600E-016, -1.000000000000000000 ) ) ;
#190 = CARTESIAN_POINT ( 'NONE',  ( -1.500000000000000000, 37.49999999999998600, 25.00000000000000700 ) ) ;
#191 = CARTESIAN_POINT ( 'NONE',  ( 1.500000000000000000, 0.0000000000000000000, 0.0000000000000000000 ) ) ;
#192 = EDGE_CURVE ( 'NONE', #153, #197, #1, .T. ) ;
#193 = ORIENTED_EDGE ( 'NONE', *, *, #214, .T. ) ;
#194 = DATE_TIME_ROLE ( 'classification_date' ) ;
#195 =( LENGTH_UNIT ( ) NAMED_UNIT ( * ) SI_UNIT ( .MILLI., .METRE. ) );
#196 = APPROVAL ( #160, 'UNSPECIFIED' ) ;
#197 = VERTEX_POINT ( 'NONE', #60 ) ;
#198 = APPROVAL_DATE_TIME ( #25, #41 ) ;
#199 = ORIENTED_EDGE ( 'NONE', *, *, #50, .F. ) ;
#200 = EDGE_LOOP ( 'NONE', ( #94, #201, #55, #223 ) ) ;
#201 = ORIENTED_EDGE ( 'NONE', *, *, #88, .F. ) ;
#202 = CALENDAR_DATE ( 2018, 17, 4 ) ;
#203 = LOCAL_TIME ( 16, 2, 58.00000000000000000, #69 ) ;
#204 = ADVANCED_FACE ( 'NONE', ( #237 ), #136, .F. ) ;
#205 = DIRECTION ( 'NONE',  ( 0.0000000000000000000, 0.0000000000000000000, -1.000000000000000000 ) ) ;
#206 = CARTESIAN_POINT ( 'NONE',  ( 1.500000000000000000, 37.49999999999998600, 25.00000000000000700 ) ) ;
#207 = PERSON_AND_ORGANIZATION ( #232, #3 ) ;
#208 = ORIENTED_EDGE ( 'NONE', *, *, #44, .F. ) ;
#209 = CC_DESIGN_PERSON_AND_ORGANIZATION_ASSIGNMENT ( #18, #66, ( #73 ) ) ;
#210 = DIRECTION ( 'NONE',  ( -1.000000000000000000, -0.0000000000000000000, -0.0000000000000000000 ) ) ;
#211 = DIRECTION ( 'NONE',  ( -0.0000000000000000000, -1.000000000000000000, -1.850371707708594600E-016 ) ) ;
#212 = CARTESIAN_POINT ( 'NONE',  ( 1.500000000000000000, 37.49999999999998600, 25.00000000000000700 ) ) ;
#213 = CARTESIAN_POINT ( 'NONE',  ( -1.500000000000000000, 37.50000000000000000, -24.99999999999999300 ) ) ;
#214 = EDGE_CURVE ( 'NONE', #163, #125, #56, .T. ) ;
#215 = CALENDAR_DATE ( 2018, 17, 4 ) ;
#216 = VECTOR ( 'NONE', #187, 1000.000000000000000 ) ;
#217 = APPROVAL_ROLE ( '' ) ;
#218 = AXIS2_PLACEMENT_3D ( 'NONE', #81, #155, #6 ) ;
#219 = PRODUCT ( 'Web Model 55142_55142', 'Web Model 55142_55142', '', ( #87 ) ) ;
#220 = ORIENTED_EDGE ( 'NONE', *, *, #59, .T. ) ;
#221 = LINE ( 'NONE', #29, #114 ) ;
#222 = ADVANCED_FACE ( 'NONE', ( #139 ), #154, .F. ) ;
#223 = ORIENTED_EDGE ( 'NONE', *, *, #50, .T. ) ;
#224 = PERSON_AND_ORGANIZATION ( #232, #3 ) ;
#225 = LINE ( 'NONE', #116, #53 ) ;
#226 = PLANE ( 'NONE',  #218 ) ;
#227 = DIRECTION ( 'NONE',  ( -0.0000000000000000000, -2.775557561562891400E-016, 1.000000000000000000 ) ) ;
#228 = CARTESIAN_POINT ( 'NONE',  ( -1.500000000000000000, -37.50000000000000000, 24.99999999999999300 ) ) ;
#229 = CARTESIAN_POINT ( 'NONE',  ( -1.500000000000000000, -37.50000000000000000, 24.99999999999999300 ) ) ;
#230 = VECTOR ( 'NONE', #30, 1000.000000000000000 ) ;
#231 = VECTOR ( 'NONE', #9, 1000.000000000000000 ) ;
#232 = PERSON ( 'UNSPECIFIED', 'UNSPECIFIED', 'UNSPECIFIED', ('UNSPECIFIED'), ('UNSPECIFIED'), ('UNSPECIFIED') ) ;
#233 = CC_DESIGN_DATE_AND_TIME_ASSIGNMENT ( #14, #179, ( #146 ) ) ;
#234 = ORIENTED_EDGE ( 'NONE', *, *, #2, .F. ) ;
#235 = LOCAL_TIME ( 16, 2, 58.00000000000000000, #128 ) ;
#236 = ORIENTED_EDGE ( 'NONE', *, *, #192, .F. ) ;
#237 = FACE_OUTER_BOUND ( 'NONE', #122, .T. ) ;
ENDSEC;
END-ISO-10303-21;
