ISO-10303-21;
HEADER;
FILE_DESCRIPTION (( 'STEP AP203' ),
    '1' );
FILE_NAME ('Web Model 17166_17176.step',
    '2021-08-09T14:28:35',
    ( '' ),
    ( '' ),
    'SwSTEP 2.0',
    'SolidWorks 2018',
    '' );
FILE_SCHEMA (( 'CONFIG_CONTROL_DESIGN' ));
ENDSEC;

DATA;
#1 = AXIS2_PLACEMENT_3D ( 'NONE', #27, #102, #132 ) ;
#2 = APPLICATION_PROTOCOL_DEFINITION ( 'international standard', 'config_control_design', 1994, #150 ) ;
#3 = ORIENTED_EDGE ( 'NONE', *, *, #153, .T. ) ;
#4 = APPROVAL_ROLE ( '' ) ;
#5 = PERSON_AND_ORGANIZATION_ROLE ( 'creator' ) ;
#6 = EDGE_LOOP ( 'NONE', ( #154, #106 ) ) ;
#7 = SECURITY_CLASSIFICATION_LEVEL ( 'unclassified' ) ;
#8 = ORIENTED_EDGE ( 'NONE', *, *, #153, .F. ) ;
#9 = FACE_OUTER_BOUND ( 'NONE', #88, .T. ) ;
#10 = APPROVAL ( #63, 'UNSPECIFIED' ) ;
#11 = CARTESIAN_POINT ( 'NONE',  ( 0.000000000000000000, 0.000000000000000000, 0.000000000000000000 ) ) ;
#12 = DIRECTION ( 'NONE',  ( 0.000000000000000000, 0.000000000000000000, 1.000000000000000000 ) ) ;
#13 = MANIFOLD_SOLID_BREP ( 'Boss-Extrude1', #78 ) ;
#14 = CALENDAR_DATE ( 2021, 9, 8 ) ;
#15 =( LENGTH_UNIT ( ) NAMED_UNIT ( * ) SI_UNIT ( $, .METRE. ) );
#16 = CARTESIAN_POINT ( 'NONE',  ( 0.000000000000000000, 0.000000000000000000, 0.03937007874015747977 ) ) ;
#17 = AXIS2_PLACEMENT_3D ( 'NONE', #11, #122, #25 ) ;
#18 = CC_DESIGN_PERSON_AND_ORGANIZATION_ASSIGNMENT ( #54, #127, ( #53 ) ) ;
#19 = AXIS2_PLACEMENT_3D ( 'NONE', #82, #136, #93 ) ;
#20 = COORDINATED_UNIVERSAL_TIME_OFFSET ( 5, 0, .BEHIND. ) ;
#21 = LOCAL_TIME ( 10, 28, 35.00000000000000000, #38 ) ;
#22 = CARTESIAN_POINT ( 'NONE',  ( 0.5905511811023621549, 7.232166136696967594E-17, 0.000000000000000000 ) ) ;
#23 = PERSON ( 'UNSPECIFIED', 'UNSPECIFIED', 'UNSPECIFIED', ('UNSPECIFIED'), ('UNSPECIFIED'), ('UNSPECIFIED') ) ;
#24 = CARTESIAN_POINT ( 'NONE',  ( 0.000000000000000000, 0.000000000000000000, 0.000000000000000000 ) ) ;
#25 = DIRECTION ( 'NONE',  ( 1.000000000000000000, 0.000000000000000000, 0.000000000000000000 ) ) ;
#26 = ORIENTED_EDGE ( 'NONE', *, *, #159, .F. ) ;
#27 = CARTESIAN_POINT ( 'NONE',  ( 0.000000000000000000, 0.000000000000000000, 0.03937007874015747977 ) ) ;
#28 = ADVANCED_FACE ( 'NONE', ( #34 ), #166, .T. ) ;
#29 = CC_DESIGN_DATE_AND_TIME_ASSIGNMENT ( #116, #67, ( #53 ) ) ;
#30 = COORDINATED_UNIVERSAL_TIME_OFFSET ( 5, 0, .BEHIND. ) ;
#31 = DIRECTION ( 'NONE',  ( 1.000000000000000000, 0.000000000000000000, 0.000000000000000000 ) ) ;
#32 =( CONVERSION_BASED_UNIT ( 'INCH', #71 ) LENGTH_UNIT ( ) NAMED_UNIT ( #58 ) );
#33 = DIRECTION ( 'NONE',  ( 0.000000000000000000, 0.000000000000000000, 1.000000000000000000 ) ) ;
#34 = FACE_OUTER_BOUND ( 'NONE', #6, .T. ) ;
#35 = APPROVAL_STATUS ( 'not_yet_approved' ) ;
#36 = FACE_OUTER_BOUND ( 'NONE', #118, .T. ) ;
#37 = FACE_OUTER_BOUND ( 'NONE', #47, .T. ) ;
#38 = COORDINATED_UNIVERSAL_TIME_OFFSET ( 5, 0, .BEHIND. ) ;
#39 = CARTESIAN_POINT ( 'NONE',  ( 0.000000000000000000, 0.000000000000000000, 0.03937007874015747977 ) ) ;
#40 = DIRECTION ( 'NONE',  ( 0.000000000000000000, 0.000000000000000000, 1.000000000000000000 ) ) ;
#41 = DIRECTION ( 'NONE',  ( -0.000000000000000000, -0.000000000000000000, -1.000000000000000000 ) ) ;
#42 = ORIENTED_EDGE ( 'NONE', *, *, #175, .F. ) ;
#43 = CALENDAR_DATE ( 2021, 9, 8 ) ;
#44 = CC_DESIGN_PERSON_AND_ORGANIZATION_ASSIGNMENT ( #76, #86, ( #119 ) ) ;
#45 = DIRECTION ( 'NONE',  ( -0.000000000000000000, -0.000000000000000000, -1.000000000000000000 ) ) ;
#46 = DIRECTION ( 'NONE',  ( -1.000000000000000000, 0.000000000000000000, 0.000000000000000000 ) ) ;
#47 = EDGE_LOOP ( 'NONE', ( #89, #161 ) ) ;
#48 = ADVANCED_BREP_SHAPE_REPRESENTATION ( 'Web Model 17166_17176', ( #13, #140 ), #100 ) ;
#49 = CC_DESIGN_DATE_AND_TIME_ASSIGNMENT ( #120, #124, ( #117 ) ) ;
#50 = DIRECTION ( 'NONE',  ( 1.000000000000000000, 0.000000000000000000, 0.000000000000000000 ) ) ;
#51 = VERTEX_POINT ( 'NONE', #22 ) ;
#52 = PERSON_AND_ORGANIZATION_ROLE ( 'design_supplier' ) ;
#53 = SECURITY_CLASSIFICATION ( '', '', #7 ) ;
#54 = PERSON_AND_ORGANIZATION ( #23, #115 ) ;
#55 = AXIS2_PLACEMENT_3D ( 'NONE', #77, #12, #105 ) ;
#56 = CIRCLE ( 'NONE', #84, 0.5905511811023621549 ) ;
#57 = CARTESIAN_POINT ( 'NONE',  ( 0.5905511811023621549, 7.232166136696967594E-17, 0.03937007874015747977 ) ) ;
#58 = DIMENSIONAL_EXPONENTS ( 1.000000000000000000, 0.000000000000000000, 0.000000000000000000, 0.000000000000000000, 0.000000000000000000, 0.000000000000000000, 0.000000000000000000 ) ;
#59 = SHAPE_DEFINITION_REPRESENTATION ( #87, #48 ) ;
#60 = AXIS2_PLACEMENT_3D ( 'NONE', #24, #40, #143 ) ;
#61 = APPROVAL ( #35, 'UNSPECIFIED' ) ;
#62 = DIRECTION ( 'NONE',  ( 0.000000000000000000, 0.000000000000000000, 1.000000000000000000 ) ) ;
#63 = APPROVAL_STATUS ( 'not_yet_approved' ) ;
#64 = VECTOR ( 'NONE', #45, 39.37007874015748143 ) ;
#65 = COORDINATED_UNIVERSAL_TIME_OFFSET ( 5, 0, .BEHIND. ) ;
#66 = DIRECTION ( 'NONE',  ( 0.000000000000000000, 0.000000000000000000, 1.000000000000000000 ) ) ;
#67 = DATE_TIME_ROLE ( 'classification_date' ) ;
#68 = LOCAL_TIME ( 10, 28, 35.00000000000000000, #65 ) ;
#69 = CYLINDRICAL_SURFACE ( 'NONE', #169, 0.5905511811023621549 ) ;
#70 = CC_DESIGN_APPROVAL ( #61, ( #53 ) ) ;
#71 = LENGTH_MEASURE_WITH_UNIT ( LENGTH_MEASURE( 0.02539999999999999897 ), #15 );
#72 = PERSON_AND_ORGANIZATION ( #23, #115 ) ;
#73 = PLANE ( 'NONE',  #60 ) ;
#74 = CARTESIAN_POINT ( 'NONE',  ( -0.5905511811023621549, 0.000000000000000000, 0.03937007874015747977 ) ) ;
#75 = ADVANCED_FACE ( 'NONE', ( #36 ), #139, .T. ) ;
#76 = PERSON_AND_ORGANIZATION ( #23, #115 ) ;
#77 = CARTESIAN_POINT ( 'NONE',  ( 0.000000000000000000, 0.000000000000000000, 0.03937007874015747977 ) ) ;
#78 = CLOSED_SHELL ( 'NONE', ( #75, #135, #28, #144 ) ) ;
#79 = APPROVAL_PERSON_ORGANIZATION ( #72, #92, #95 ) ;
#80 = PRODUCT_DEFINITION_FORMATION_WITH_SPECIFIED_SOURCE ( 'ANY', '', #119, .NOT_KNOWN. ) ;
#81 = CARTESIAN_POINT ( 'NONE',  ( 0.000000000000000000, 0.000000000000000000, 0.03937007874015747977 ) ) ;
#82 = CARTESIAN_POINT ( 'NONE',  ( 0.000000000000000000, 0.000000000000000000, 0.000000000000000000 ) ) ;
#83 = VERTEX_POINT ( 'NONE', #57 ) ;
#84 = AXIS2_PLACEMENT_3D ( 'NONE', #16, #66, #31 ) ;
#85 = PERSON_AND_ORGANIZATION ( #23, #115 ) ;
#86 = PERSON_AND_ORGANIZATION_ROLE ( 'design_owner' ) ;
#87 = PRODUCT_DEFINITION_SHAPE ( 'NONE', 'NONE',  #117 ) ;
#88 = EDGE_LOOP ( 'NONE', ( #8, #42, #94, #178 ) ) ;
#89 = ORIENTED_EDGE ( 'NONE', *, *, #165, .F. ) ;
#90 = LINE ( 'NONE', #134, #155 ) ;
#91 = AXIS2_PLACEMENT_3D ( 'NONE', #81, #33, #152 ) ;
#92 = APPROVAL ( #170, 'UNSPECIFIED' ) ;
#93 = DIRECTION ( 'NONE',  ( 1.000000000000000000, 0.000000000000000000, 0.000000000000000000 ) ) ;
#94 = ORIENTED_EDGE ( 'NONE', *, *, #159, .T. ) ;
#95 = APPROVAL_ROLE ( '' ) ;
#96 = APPROVAL_PERSON_ORGANIZATION ( #98, #10, #4 ) ;
#97 = APPROVAL_ROLE ( '' ) ;
#98 = PERSON_AND_ORGANIZATION ( #23, #115 ) ;
#99 = LOCAL_TIME ( 10, 28, 35.00000000000000000, #20 ) ;
#100 =( GEOMETRIC_REPRESENTATION_CONTEXT ( 3 ) GLOBAL_UNCERTAINTY_ASSIGNED_CONTEXT ( ( #158 ) ) GLOBAL_UNIT_ASSIGNED_CONTEXT ( ( #32, #110, #148 ) ) REPRESENTATION_CONTEXT ( 'NONE', 'WORKASPACE' ) );
#101 = CC_DESIGN_SECURITY_CLASSIFICATION ( #53, ( #80 ) ) ;
#102 = DIRECTION ( 'NONE',  ( -0.000000000000000000, -0.000000000000000000, -1.000000000000000000 ) ) ;
#103 = PERSON_AND_ORGANIZATION ( #23, #115 ) ;
#104 = DIRECTION ( 'NONE',  ( -0.000000000000000000, -0.000000000000000000, -1.000000000000000000 ) ) ;
#105 = DIRECTION ( 'NONE',  ( 1.000000000000000000, 0.000000000000000000, -0.000000000000000000 ) ) ;
#106 = ORIENTED_EDGE ( 'NONE', *, *, #163, .T. ) ;
#107 = PERSON_AND_ORGANIZATION ( #23, #115 ) ;
#108 = DATE_AND_TIME ( #126, #177 ) ;
#109 = CARTESIAN_POINT ( 'NONE',  ( -0.5905511811023621549, 0.000000000000000000, 0.000000000000000000 ) ) ;
#110 =( NAMED_UNIT ( * ) PLANE_ANGLE_UNIT ( ) SI_UNIT ( $, .RADIAN. ) );
#111 = DESIGN_CONTEXT ( 'detailed design', #150, 'design' ) ;
#112 = CIRCLE ( 'NONE', #19, 0.5905511811023621549 ) ;
#113 = COORDINATED_UNIVERSAL_TIME_OFFSET ( 5, 0, .BEHIND. ) ;
#114 = CC_DESIGN_PERSON_AND_ORGANIZATION_ASSIGNMENT ( #107, #52, ( #80 ) ) ;
#115 = ORGANIZATION ( 'UNSPECIFIED', 'UNSPECIFIED', '' ) ;
#116 = DATE_AND_TIME ( #164, #68 ) ;
#117 = PRODUCT_DEFINITION ( 'UNKNOWN', '', #80, #111 ) ;
#118 = EDGE_LOOP ( 'NONE', ( #130, #3, #157, #26 ) ) ;
#119 = PRODUCT ( 'Web Model 17166_17176', 'Web Model 17166_17176', '', ( #173 ) ) ;
#120 = DATE_AND_TIME ( #14, #21 ) ;
#121 = CARTESIAN_POINT ( 'NONE',  ( -0.5905511811023621549, 0.000000000000000000, 0.03937007874015747977 ) ) ;
#122 = DIRECTION ( 'NONE',  ( 0.000000000000000000, 0.000000000000000000, 1.000000000000000000 ) ) ;
#123 = VERTEX_POINT ( 'NONE', #121 ) ;
#124 = DATE_TIME_ROLE ( 'creation_date' ) ;
#125 = CC_DESIGN_PERSON_AND_ORGANIZATION_ASSIGNMENT ( #141, #5, ( #80 ) ) ;
#126 = CALENDAR_DATE ( 2021, 9, 8 ) ;
#127 = PERSON_AND_ORGANIZATION_ROLE ( 'classification_officer' ) ;
#128 = CC_DESIGN_PERSON_AND_ORGANIZATION_ASSIGNMENT ( #85, #172, ( #117 ) ) ;
#129 = APPROVAL_DATE_TIME ( #133, #92 ) ;
#130 = ORIENTED_EDGE ( 'NONE', *, *, #163, .F. ) ;
#131 = CC_DESIGN_APPROVAL ( #92, ( #80 ) ) ;
#132 = DIRECTION ( 'NONE',  ( -1.000000000000000000, 0.000000000000000000, 0.000000000000000000 ) ) ;
#133 = DATE_AND_TIME ( #171, #168 ) ;
#134 = CARTESIAN_POINT ( 'NONE',  ( 0.5905511811023621549, 7.232166136696967594E-17, 0.03937007874015747977 ) ) ;
#135 = ADVANCED_FACE ( 'NONE', ( #9 ), #69, .T. ) ;
#136 = DIRECTION ( 'NONE',  ( 0.000000000000000000, 0.000000000000000000, 1.000000000000000000 ) ) ;
#137 = APPROVAL_DATE_TIME ( #167, #61 ) ;
#138 = PRODUCT_RELATED_PRODUCT_CATEGORY ( 'detail', '', ( #119 ) ) ;
#139 = CYLINDRICAL_SURFACE ( 'NONE', #1, 0.5905511811023621549 ) ;
#140 = AXIS2_PLACEMENT_3D ( 'NONE', #162, #62, #50 ) ;
#141 = PERSON_AND_ORGANIZATION ( #23, #115 ) ;
#142 = CC_DESIGN_APPROVAL ( #10, ( #117 ) ) ;
#143 = DIRECTION ( 'NONE',  ( 1.000000000000000000, 0.000000000000000000, -0.000000000000000000 ) ) ;
#144 = ADVANCED_FACE ( 'NONE', ( #37 ), #73, .F. ) ;
#145 = CIRCLE ( 'NONE', #91, 0.5905511811023621549 ) ;
#146 = CIRCLE ( 'NONE', #17, 0.5905511811023621549 ) ;
#147 = APPROVAL_DATE_TIME ( #108, #10 ) ;
#148 =( NAMED_UNIT ( * ) SI_UNIT ( $, .STERADIAN. ) SOLID_ANGLE_UNIT ( ) );
#149 = APPROVAL_PERSON_ORGANIZATION ( #103, #61, #97 ) ;
#150 = APPLICATION_CONTEXT ( 'configuration controlled 3d designs of mechanical parts and assemblies' ) ;
#151 = APPLICATION_PROTOCOL_DEFINITION ( 'international standard', 'config_control_design', 1994, #160 ) ;
#152 = DIRECTION ( 'NONE',  ( 1.000000000000000000, 0.000000000000000000, 0.000000000000000000 ) ) ;
#153 = EDGE_CURVE ( 'NONE', #83, #51, #90, .T. ) ;
#154 = ORIENTED_EDGE ( 'NONE', *, *, #175, .T. ) ;
#155 = VECTOR ( 'NONE', #41, 39.37007874015748143 ) ;
#156 = EDGE_CURVE ( 'NONE', #51, #176, #146, .T. ) ;
#157 = ORIENTED_EDGE ( 'NONE', *, *, #156, .T. ) ;
#158 = UNCERTAINTY_MEASURE_WITH_UNIT (LENGTH_MEASURE( 1.000000000000000082E-05 ), #32, 'distance_accuracy_value', 'NONE');
#159 = EDGE_CURVE ( 'NONE', #123, #176, #174, .T. ) ;
#160 = APPLICATION_CONTEXT ( 'configuration controlled 3d designs of mechanical parts and assemblies' ) ;
#161 = ORIENTED_EDGE ( 'NONE', *, *, #156, .F. ) ;
#162 = CARTESIAN_POINT ( 'NONE',  ( 0.000000000000000000, 0.000000000000000000, 0.000000000000000000 ) ) ;
#163 = EDGE_CURVE ( 'NONE', #83, #123, #56, .T. ) ;
#164 = CALENDAR_DATE ( 2021, 9, 8 ) ;
#165 = EDGE_CURVE ( 'NONE', #176, #51, #112, .T. ) ;
#166 = PLANE ( 'NONE',  #55 ) ;
#167 = DATE_AND_TIME ( #43, #99 ) ;
#168 = LOCAL_TIME ( 10, 28, 35.00000000000000000, #30 ) ;
#169 = AXIS2_PLACEMENT_3D ( 'NONE', #39, #104, #46 ) ;
#170 = APPROVAL_STATUS ( 'not_yet_approved' ) ;
#171 = CALENDAR_DATE ( 2021, 9, 8 ) ;
#172 = PERSON_AND_ORGANIZATION_ROLE ( 'creator' ) ;
#173 = MECHANICAL_CONTEXT ( 'NONE', #160, 'mechanical' ) ;
#174 = LINE ( 'NONE', #74, #64 ) ;
#175 = EDGE_CURVE ( 'NONE', #123, #83, #145, .T. ) ;
#176 = VERTEX_POINT ( 'NONE', #109 ) ;
#177 = LOCAL_TIME ( 10, 28, 35.00000000000000000, #113 ) ;
#178 = ORIENTED_EDGE ( 'NONE', *, *, #165, .T. ) ;
ENDSEC;
END-ISO-10303-21;
