ISO-10303-21;
HEADER;
FILE_DESCRIPTION (( 'STEP AP203' ),
    '1' );
FILE_NAME ('Web Model 37688_37714.step',
    '2018-08-03T18:40:28',
    ( '' ),
    ( '' ),
    'SwSTEP 2.0',
    'SolidWorks 2016',
    '' );
FILE_SCHEMA (( 'CONFIG_CONTROL_DESIGN' ));
ENDSEC;

DATA;
#1 = ORIENTED_EDGE ( 'NONE', *, *, #172, .T. ) ;
#2 = AXIS2_PLACEMENT_3D ( 'NONE', #95, #159, #51 ) ;
#3 = APPROVAL ( #165, 'UNSPECIFIED' ) ;
#4 = FACE_OUTER_BOUND ( 'NONE', #114, .T. ) ;
#5 = CIRCLE ( 'NONE', #17, 6.349999999999999600 ) ;
#6 = DATE_TIME_ROLE ( 'classification_date' ) ;
#7 = PRODUCT_DEFINITION ( 'UNKNOWN', '', #148, #59 ) ;
#8 = CARTESIAN_POINT ( 'NONE',  ( 0.0000000000000000000, 0.0000000000000000000, 3.174999999999999800 ) ) ;
#9 = PLANE ( 'NONE',  #2 ) ;
#10 = CARTESIAN_POINT ( 'NONE',  ( 0.0000000000000000000, 0.0000000000000000000, 0.0000000000000000000 ) ) ;
#11 = EDGE_CURVE ( 'NONE', #69, #104, #5, .T. ) ;
#12 = DIRECTION ( 'NONE',  ( 1.000000000000000000, 0.0000000000000000000, 0.0000000000000000000 ) ) ;
#13 = CALENDAR_DATE ( 2018, 3, 8 ) ;
#14 = CYLINDRICAL_SURFACE ( 'NONE', #77, 6.349999999999999600 ) ;
#15 = CC_DESIGN_PERSON_AND_ORGANIZATION_ASSIGNMENT ( #29, #167, ( #7 ) ) ;
#16 = CALENDAR_DATE ( 2018, 3, 8 ) ;
#17 = AXIS2_PLACEMENT_3D ( 'NONE', #116, #143, #37 ) ;
#18 = PERSON_AND_ORGANIZATION ( #122, #66 ) ;
#19 = ORIENTED_EDGE ( 'NONE', *, *, #153, .T. ) ;
#20 = AXIS2_PLACEMENT_3D ( 'NONE', #160, #40, #12 ) ;
#21 = CARTESIAN_POINT ( 'NONE',  ( -6.349999999999999600, 0.0000000000000000000, 3.174999999999999800 ) ) ;
#22 = DIRECTION ( 'NONE',  ( -0.0000000000000000000, -0.0000000000000000000, -1.000000000000000000 ) ) ;
#23 = CARTESIAN_POINT ( 'NONE',  ( -6.349999999999999600, 0.0000000000000000000, 3.174999999999999800 ) ) ;
#24 = APPLICATION_CONTEXT ( 'configuration controlled 3d designs of mechanical parts and assemblies' ) ;
#25 = APPLICATION_PROTOCOL_DEFINITION ( 'international standard', 'config_control_design', 1994, #146 ) ;
#26 = LINE ( 'NONE', #91, #175 ) ;
#27 = CC_DESIGN_PERSON_AND_ORGANIZATION_ASSIGNMENT ( #54, #68, ( #136 ) ) ;
#28 = LOCAL_TIME ( 14, 40, 28.00000000000000000, #121 ) ;
#29 = PERSON_AND_ORGANIZATION ( #122, #66 ) ;
#30 = CALENDAR_DATE ( 2018, 3, 8 ) ;
#31 = FACE_OUTER_BOUND ( 'NONE', #44, .T. ) ;
#32 = AXIS2_PLACEMENT_3D ( 'NONE', #169, #128, #76 ) ;
#33 = SECURITY_CLASSIFICATION_LEVEL ( 'unclassified' ) ;
#34 = COORDINATED_UNIVERSAL_TIME_OFFSET ( 5, 0, .BEHIND. ) ;
#35 = DIRECTION ( 'NONE',  ( -0.0000000000000000000, -0.0000000000000000000, -1.000000000000000000 ) ) ;
#36 = SECURITY_CLASSIFICATION ( '', '', #33 ) ;
#37 = DIRECTION ( 'NONE',  ( 1.000000000000000000, 0.0000000000000000000, 0.0000000000000000000 ) ) ;
#38 = ORIENTED_EDGE ( 'NONE', *, *, #153, .F. ) ;
#39 = APPROVAL_ROLE ( '' ) ;
#40 = DIRECTION ( 'NONE',  ( 0.0000000000000000000, 0.0000000000000000000, 1.000000000000000000 ) ) ;
#41 =( LENGTH_UNIT ( ) NAMED_UNIT ( * ) SI_UNIT ( .MILLI., .METRE. ) );
#42 = APPROVAL_PERSON_ORGANIZATION ( #85, #64, #156 ) ;
#43 = ADVANCED_FACE ( 'NONE', ( #4 ), #158, .F. ) ;
#44 = EDGE_LOOP ( 'NONE', ( #100, #155, #96, #38 ) ) ;
#45 = AXIS2_PLACEMENT_3D ( 'NONE', #52, #49, #142 ) ;
#46 = CC_DESIGN_PERSON_AND_ORGANIZATION_ASSIGNMENT ( #90, #65, ( #148 ) ) ;
#47 = ADVANCED_BREP_SHAPE_REPRESENTATION ( 'Web Model 37688_37714', ( #86, #70 ), #50 ) ;
#48 = COORDINATED_UNIVERSAL_TIME_OFFSET ( 5, 0, .BEHIND. ) ;
#49 = DIRECTION ( 'NONE',  ( 0.0000000000000000000, 0.0000000000000000000, 1.000000000000000000 ) ) ;
#50 =( GEOMETRIC_REPRESENTATION_CONTEXT ( 3 ) GLOBAL_UNCERTAINTY_ASSIGNED_CONTEXT ( ( #83 ) ) GLOBAL_UNIT_ASSIGNED_CONTEXT ( ( #41, #55, #133 ) ) REPRESENTATION_CONTEXT ( 'NONE', 'WORKASPACE' ) );
#51 = DIRECTION ( 'NONE',  ( 1.000000000000000000, 0.0000000000000000000, -0.0000000000000000000 ) ) ;
#52 = CARTESIAN_POINT ( 'NONE',  ( 0.0000000000000000000, 0.0000000000000000000, -3.174999999999999800 ) ) ;
#53 = DIRECTION ( 'NONE',  ( 1.000000000000000000, 0.0000000000000000000, 0.0000000000000000000 ) ) ;
#54 = PERSON_AND_ORGANIZATION ( #122, #66 ) ;
#55 =( NAMED_UNIT ( * ) PLANE_ANGLE_UNIT ( ) SI_UNIT ( $, .RADIAN. ) );
#56 = EDGE_CURVE ( 'NONE', #104, #69, #173, .T. ) ;
#57 = CALENDAR_DATE ( 2018, 3, 8 ) ;
#58 = ORIENTED_EDGE ( 'NONE', *, *, #162, .F. ) ;
#59 = DESIGN_CONTEXT ( 'detailed design', #24, 'design' ) ;
#60 = LOCAL_TIME ( 14, 40, 28.00000000000000000, #149 ) ;
#61 = COORDINATED_UNIVERSAL_TIME_OFFSET ( 5, 0, .BEHIND. ) ;
#62 = ORIENTED_EDGE ( 'NONE', *, *, #11, .F. ) ;
#63 = CARTESIAN_POINT ( 'NONE',  ( -6.349999999999999600, 0.0000000000000000000, -3.174999999999999800 ) ) ;
#64 = APPROVAL ( #171, 'UNSPECIFIED' ) ;
#65 = PERSON_AND_ORGANIZATION_ROLE ( 'design_supplier' ) ;
#66 = ORGANIZATION ( 'UNSPECIFIED', 'UNSPECIFIED', '' ) ;
#67 = PRODUCT_DEFINITION_SHAPE ( 'NONE', 'NONE',  #7 ) ;
#68 = PERSON_AND_ORGANIZATION_ROLE ( 'design_owner' ) ;
#69 = VERTEX_POINT ( 'NONE', #119 ) ;
#70 = AXIS2_PLACEMENT_3D ( 'NONE', #10, #131, #53 ) ;
#71 = AXIS2_PLACEMENT_3D ( 'NONE', #8, #35, #126 ) ;
#72 = APPROVAL_DATE_TIME ( #115, #64 ) ;
#73 = PRODUCT_RELATED_PRODUCT_CATEGORY ( 'detail', '', ( #136 ) ) ;
#74 = DATE_AND_TIME ( #16, #28 ) ;
#75 = VECTOR ( 'NONE', #105, 1000.000000000000000 ) ;
#76 = DIRECTION ( 'NONE',  ( 1.000000000000000000, 0.0000000000000000000, 0.0000000000000000000 ) ) ;
#77 = AXIS2_PLACEMENT_3D ( 'NONE', #129, #78, #79 ) ;
#78 = DIRECTION ( 'NONE',  ( -0.0000000000000000000, -0.0000000000000000000, -1.000000000000000000 ) ) ;
#79 = DIRECTION ( 'NONE',  ( -1.000000000000000000, 0.0000000000000000000, 0.0000000000000000000 ) ) ;
#80 = VERTEX_POINT ( 'NONE', #93 ) ;
#81 = APPLICATION_PROTOCOL_DEFINITION ( 'international standard', 'config_control_design', 1994, #24 ) ;
#82 = VERTEX_POINT ( 'NONE', #21 ) ;
#83 = UNCERTAINTY_MEASURE_WITH_UNIT (LENGTH_MEASURE( 1.000000000000000100E-005 ), #41, 'distance_accuracy_value', 'NONE');
#84 = PERSON_AND_ORGANIZATION ( #122, #66 ) ;
#85 = PERSON_AND_ORGANIZATION ( #122, #66 ) ;
#86 = MANIFOLD_SOLID_BREP ( 'Boss-Extrude1', #145 ) ;
#87 = APPROVAL_DATE_TIME ( #74, #157 ) ;
#88 = APPROVAL_DATE_TIME ( #99, #3 ) ;
#89 = AXIS2_PLACEMENT_3D ( 'NONE', #106, #132, #120 ) ;
#90 = PERSON_AND_ORGANIZATION ( #122, #66 ) ;
#91 = CARTESIAN_POINT ( 'NONE',  ( 6.349999999999999600, 7.776507174585692200E-016, 3.174999999999999800 ) ) ;
#92 = PERSON_AND_ORGANIZATION_ROLE ( 'creator' ) ;
#93 = CARTESIAN_POINT ( 'NONE',  ( 6.349999999999999600, 7.776507174585692200E-016, 3.174999999999999800 ) ) ;
#94 = DATE_TIME_ROLE ( 'creation_date' ) ;
#95 = CARTESIAN_POINT ( 'NONE',  ( 0.0000000000000000000, 0.0000000000000000000, 3.174999999999999800 ) ) ;
#96 = ORIENTED_EDGE ( 'NONE', *, *, #11, .T. ) ;
#97 = MECHANICAL_CONTEXT ( 'NONE', #146, 'mechanical' ) ;
#98 = CC_DESIGN_APPROVAL ( #157, ( #36 ) ) ;
#99 = DATE_AND_TIME ( #130, #60 ) ;
#100 = ORIENTED_EDGE ( 'NONE', *, *, #172, .F. ) ;
#101 = ORIENTED_EDGE ( 'NONE', *, *, #56, .F. ) ;
#102 = CIRCLE ( 'NONE', #89, 6.349999999999999600 ) ;
#103 = LOCAL_TIME ( 14, 40, 28.00000000000000000, #34 ) ;
#104 = VERTEX_POINT ( 'NONE', #63 ) ;
#105 = DIRECTION ( 'NONE',  ( -0.0000000000000000000, -0.0000000000000000000, -1.000000000000000000 ) ) ;
#106 = CARTESIAN_POINT ( 'NONE',  ( 0.0000000000000000000, 0.0000000000000000000, 3.174999999999999800 ) ) ;
#107 = LINE ( 'NONE', #23, #75 ) ;
#108 = CC_DESIGN_PERSON_AND_ORGANIZATION_ASSIGNMENT ( #113, #166, ( #36 ) ) ;
#109 = DATE_AND_TIME ( #57, #154 ) ;
#110 = ORIENTED_EDGE ( 'NONE', *, *, #162, .T. ) ;
#111 = ADVANCED_FACE ( 'NONE', ( #170 ), #140, .T. ) ;
#112 = ORIENTED_EDGE ( 'NONE', *, *, #56, .T. ) ;
#113 = PERSON_AND_ORGANIZATION ( #122, #66 ) ;
#114 = EDGE_LOOP ( 'NONE', ( #101, #62 ) ) ;
#115 = DATE_AND_TIME ( #13, #161 ) ;
#116 = CARTESIAN_POINT ( 'NONE',  ( 0.0000000000000000000, 0.0000000000000000000, -3.174999999999999800 ) ) ;
#117 = CC_DESIGN_DATE_AND_TIME_ASSIGNMENT ( #144, #94, ( #7 ) ) ;
#118 = APPROVAL_PERSON_ORGANIZATION ( #18, #157, #125 ) ;
#119 = CARTESIAN_POINT ( 'NONE',  ( 6.349999999999999600, 7.776507174585692200E-016, -3.174999999999999800 ) ) ;
#120 = DIRECTION ( 'NONE',  ( 1.000000000000000000, 0.0000000000000000000, 0.0000000000000000000 ) ) ;
#121 = COORDINATED_UNIVERSAL_TIME_OFFSET ( 5, 0, .BEHIND. ) ;
#122 = PERSON ( 'UNSPECIFIED', 'UNSPECIFIED', 'UNSPECIFIED', ('UNSPECIFIED'), ('UNSPECIFIED'), ('UNSPECIFIED') ) ;
#123 = CC_DESIGN_PERSON_AND_ORGANIZATION_ASSIGNMENT ( #84, #92, ( #148 ) ) ;
#124 = FACE_OUTER_BOUND ( 'NONE', #151, .T. ) ;
#125 = APPROVAL_ROLE ( '' ) ;
#126 = DIRECTION ( 'NONE',  ( -1.000000000000000000, 0.0000000000000000000, 0.0000000000000000000 ) ) ;
#127 = PERSON_AND_ORGANIZATION ( #122, #66 ) ;
#128 = DIRECTION ( 'NONE',  ( 0.0000000000000000000, 0.0000000000000000000, 1.000000000000000000 ) ) ;
#129 = CARTESIAN_POINT ( 'NONE',  ( 0.0000000000000000000, 0.0000000000000000000, 3.174999999999999800 ) ) ;
#130 = CALENDAR_DATE ( 2018, 3, 8 ) ;
#131 = DIRECTION ( 'NONE',  ( 0.0000000000000000000, 0.0000000000000000000, 1.000000000000000000 ) ) ;
#132 = DIRECTION ( 'NONE',  ( 0.0000000000000000000, 0.0000000000000000000, 1.000000000000000000 ) ) ;
#133 =( NAMED_UNIT ( * ) SI_UNIT ( $, .STERADIAN. ) SOLID_ANGLE_UNIT ( ) );
#134 = EDGE_LOOP ( 'NONE', ( #147, #58, #19, #112 ) ) ;
#135 = ADVANCED_FACE ( 'NONE', ( #124 ), #9, .T. ) ;
#136 = PRODUCT ( 'Web Model 37688_37714', 'Web Model 37688_37714', '', ( #97 ) ) ;
#137 = EDGE_CURVE ( 'NONE', #80, #69, #26, .T. ) ;
#138 = CIRCLE ( 'NONE', #20, 6.349999999999999600 ) ;
#139 = CC_DESIGN_DATE_AND_TIME_ASSIGNMENT ( #109, #6, ( #36 ) ) ;
#140 = CYLINDRICAL_SURFACE ( 'NONE', #71, 6.349999999999999600 ) ;
#141 = APPROVAL_STATUS ( 'not_yet_approved' ) ;
#142 = DIRECTION ( 'NONE',  ( 1.000000000000000000, 0.0000000000000000000, -0.0000000000000000000 ) ) ;
#143 = DIRECTION ( 'NONE',  ( 0.0000000000000000000, 0.0000000000000000000, 1.000000000000000000 ) ) ;
#144 = DATE_AND_TIME ( #30, #103 ) ;
#145 = CLOSED_SHELL ( 'NONE', ( #150, #111, #135, #43 ) ) ;
#146 = APPLICATION_CONTEXT ( 'configuration controlled 3d designs of mechanical parts and assemblies' ) ;
#147 = ORIENTED_EDGE ( 'NONE', *, *, #137, .F. ) ;
#148 = PRODUCT_DEFINITION_FORMATION_WITH_SPECIFIED_SOURCE ( 'ANY', '', #136, .NOT_KNOWN. ) ;
#149 = COORDINATED_UNIVERSAL_TIME_OFFSET ( 5, 0, .BEHIND. ) ;
#150 = ADVANCED_FACE ( 'NONE', ( #31 ), #14, .T. ) ;
#151 = EDGE_LOOP ( 'NONE', ( #110, #1 ) ) ;
#152 = SHAPE_DEFINITION_REPRESENTATION ( #67, #47 ) ;
#153 = EDGE_CURVE ( 'NONE', #82, #104, #107, .T. ) ;
#154 = LOCAL_TIME ( 14, 40, 28.00000000000000000, #48 ) ;
#155 = ORIENTED_EDGE ( 'NONE', *, *, #137, .T. ) ;
#156 = APPROVAL_ROLE ( '' ) ;
#157 = APPROVAL ( #141, 'UNSPECIFIED' ) ;
#158 = PLANE ( 'NONE',  #45 ) ;
#159 = DIRECTION ( 'NONE',  ( 0.0000000000000000000, 0.0000000000000000000, 1.000000000000000000 ) ) ;
#160 = CARTESIAN_POINT ( 'NONE',  ( 0.0000000000000000000, 0.0000000000000000000, 3.174999999999999800 ) ) ;
#161 = LOCAL_TIME ( 14, 40, 28.00000000000000000, #61 ) ;
#162 = EDGE_CURVE ( 'NONE', #82, #80, #138, .T. ) ;
#163 = CC_DESIGN_SECURITY_CLASSIFICATION ( #36, ( #148 ) ) ;
#164 = APPROVAL_PERSON_ORGANIZATION ( #127, #3, #39 ) ;
#165 = APPROVAL_STATUS ( 'not_yet_approved' ) ;
#166 = PERSON_AND_ORGANIZATION_ROLE ( 'classification_officer' ) ;
#167 = PERSON_AND_ORGANIZATION_ROLE ( 'creator' ) ;
#168 = CC_DESIGN_APPROVAL ( #64, ( #7 ) ) ;
#169 = CARTESIAN_POINT ( 'NONE',  ( 0.0000000000000000000, 0.0000000000000000000, -3.174999999999999800 ) ) ;
#170 = FACE_OUTER_BOUND ( 'NONE', #134, .T. ) ;
#171 = APPROVAL_STATUS ( 'not_yet_approved' ) ;
#172 = EDGE_CURVE ( 'NONE', #80, #82, #102, .T. ) ;
#173 = CIRCLE ( 'NONE', #32, 6.349999999999999600 ) ;
#174 = CC_DESIGN_APPROVAL ( #3, ( #148 ) ) ;
#175 = VECTOR ( 'NONE', #22, 1000.000000000000000 ) ;
ENDSEC;
END-ISO-10303-21;
