ISO-10303-21;
HEADER;
FILE_DESCRIPTION (( 'STEP AP214' ),
    '1' );
FILE_NAME ('19316-E0W.STEP',
    '2009-12-21T17:12:11',
    ( ' ' ),
    ( ' ' ),
    'SwSTEP 2.0',
    'SolidWorks 2009',
    '' );
FILE_SCHEMA (( 'AUTOMOTIVE_DESIGN' ));
ENDSEC;

DATA;
#1 = ADVANCED_FACE ( 'NONE', ( #8 ), #17, .T. ) ;
#2 = EDGE_CURVE ( 'NONE', #148, #142, #55, .T. ) ;
#3 = ORIENTED_EDGE ( 'NONE', *, *, #161, .T. ) ;
#4 =( NAMED_UNIT ( * ) SI_UNIT ( $, .STERADIAN. ) SOLID_ANGLE_UNIT ( ) );
#5 = ORIENTED_EDGE ( 'NONE', *, *, #141, .T. ) ;
#6 =( NAMED_UNIT ( * ) PLANE_ANGLE_UNIT ( ) SI_UNIT ( $, .RADIAN. ) );
#7 = FILL_AREA_STYLE ('',( #9 ) ) ;
#8 = FACE_OUTER_BOUND ( 'NONE', #163, .T. ) ;
#9 = FILL_AREA_STYLE_COLOUR ( '', #20 ) ;
#10 =( GEOMETRIC_REPRESENTATION_CONTEXT ( 3 ) GLOBAL_UNCERTAINTY_ASSIGNED_CONTEXT ( ( #18 ) ) GLOBAL_UNIT_ASSIGNED_CONTEXT ( ( #14, #6, #19 ) ) REPRESENTATION_CONTEXT ( 'NONE', 'WORKASPACE' ) );
#11 = PRESENTATION_STYLE_ASSIGNMENT (( #12 ) ) ;
#12 = SURFACE_STYLE_USAGE ( .BOTH. , #13 ) ;
#13 = SURFACE_SIDE_STYLE ('',( #21 ) ) ;
#14 =( LENGTH_UNIT ( ) NAMED_UNIT ( * ) SI_UNIT ( .MILLI., .METRE. ) );
#15 = MECHANICAL_DESIGN_GEOMETRIC_PRESENTATION_REPRESENTATION (  '', ( #22 ), #10 ) ;
#16 = PRESENTATION_LAYER_ASSIGNMENT (  '', '', ( #22 ) ) ;
#17 = CYLINDRICAL_SURFACE ( 'NONE', #24, 15.00000000000000000 ) ;
#18 = UNCERTAINTY_MEASURE_WITH_UNIT (LENGTH_MEASURE( 1.000000000000000100E-005 ), #14, 'distance_accuracy_value', 'NONE');
#19 =( NAMED_UNIT ( * ) SI_UNIT ( $, .STERADIAN. ) SOLID_ANGLE_UNIT ( ) );
#20 = COLOUR_RGB ( '',0.9568627450980391500, 0.9490196078431372100, 0.9607843137254902200 ) ;
#21 = SURFACE_STYLE_FILL_AREA ( #7 ) ;
#22 = STYLED_ITEM ( 'NONE', ( #11 ), #1 ) ;
#23 = DIRECTION ( 'NONE',  ( 1.000000000000000000, 0.0000000000000000000, 0.0000000000000000000 ) ) ;
#24 = AXIS2_PLACEMENT_3D ( 'NONE', #25, #27, #23 ) ;
#25 = CARTESIAN_POINT ( 'NONE',  ( 0.0000000000000000000, 0.0000000000000000000, 4.308132045400366600 ) ) ;
#26 = UNCERTAINTY_MEASURE_WITH_UNIT (LENGTH_MEASURE( 1.000000000000000100E-005 ), #41, 'distance_accuracy_value', 'NONE');
#27 = DIRECTION ( 'NONE',  ( -0.0000000000000000000, -0.0000000000000000000, 1.000000000000000000 ) ) ;
#28 = SURFACE_SIDE_STYLE ('',( #52 ) ) ;
#29 =( NAMED_UNIT ( * ) PLANE_ANGLE_UNIT ( ) SI_UNIT ( $, .RADIAN. ) );
#30 = DIRECTION ( 'NONE',  ( 1.000000000000000000, 0.0000000000000000000, 0.0000000000000000000 ) ) ;
#31 = DIRECTION ( 'NONE',  ( -0.0000000000000000000, -0.0000000000000000000, 1.000000000000000000 ) ) ;
#32 = FILL_AREA_STYLE ('',( #57 ) ) ;
#33 = PRESENTATION_STYLE_ASSIGNMENT (( #34 ) ) ;
#34 = SURFACE_STYLE_USAGE ( .BOTH. , #35 ) ;
#35 = SURFACE_SIDE_STYLE ('',( #36 ) ) ;
#36 = SURFACE_STYLE_FILL_AREA ( #43 ) ;
#37 =( GEOMETRIC_REPRESENTATION_CONTEXT ( 3 ) GLOBAL_UNCERTAINTY_ASSIGNED_CONTEXT ( ( #48 ) ) GLOBAL_UNIT_ASSIGNED_CONTEXT ( ( #42, #58, #53 ) ) REPRESENTATION_CONTEXT ( 'NONE', 'WORKASPACE' ) );
#38 = CARTESIAN_POINT ( 'NONE',  ( 0.0000000000000000000, 0.0000000000000000000, 0.4333653478553181100 ) ) ;
#39 = PRESENTATION_STYLE_ASSIGNMENT (( #40 ) ) ;
#40 = SURFACE_STYLE_USAGE ( .BOTH. , #28 ) ;
#41 =( LENGTH_UNIT ( ) NAMED_UNIT ( * ) SI_UNIT ( .MILLI., .METRE. ) );
#42 =( LENGTH_UNIT ( ) NAMED_UNIT ( * ) SI_UNIT ( .MILLI., .METRE. ) );
#43 = FILL_AREA_STYLE ('',( #44 ) ) ;
#44 = FILL_AREA_STYLE_COLOUR ( '', #45 ) ;
#45 = COLOUR_RGB ( '',0.9568627450980391500, 0.9490196078431372100, 0.9607843137254902200 ) ;
#46 = COLOUR_RGB ( '',0.7960784313725489700, 0.8235294117647058400, 0.9372549019607843100 ) ;
#47 = AXIS2_PLACEMENT_3D ( 'NONE', #38, #31, #30 ) ;
#48 = UNCERTAINTY_MEASURE_WITH_UNIT (LENGTH_MEASURE( 1.000000000000000100E-005 ), #42, 'distance_accuracy_value', 'NONE');
#49 = MECHANICAL_DESIGN_GEOMETRIC_PRESENTATION_REPRESENTATION (  '', ( #51 ), #69 ) ;
#50 = PRESENTATION_LAYER_ASSIGNMENT (  '', '', ( #51 ) ) ;
#51 = STYLED_ITEM ( 'NONE', ( #33 ), #135 ) ;
#52 = SURFACE_STYLE_FILL_AREA ( #32 ) ;
#53 =( NAMED_UNIT ( * ) SI_UNIT ( $, .STERADIAN. ) SOLID_ANGLE_UNIT ( ) );
#54 = FACE_OUTER_BOUND ( 'NONE', #136, .T. ) ;
#55 = CIRCLE ( 'NONE', #47, 15.00000000000000200 ) ;
#56 = MECHANICAL_DESIGN_GEOMETRIC_PRESENTATION_REPRESENTATION (  '', ( #60 ), #37 ) ;
#57 = FILL_AREA_STYLE_COLOUR ( '', #46 ) ;
#58 =( NAMED_UNIT ( * ) PLANE_ANGLE_UNIT ( ) SI_UNIT ( $, .RADIAN. ) );
#59 = PRESENTATION_LAYER_ASSIGNMENT (  '', '', ( #60 ) ) ;
#60 = STYLED_ITEM ( 'NONE', ( #39 ), #134 ) ;
#61 = DIRECTION ( 'NONE',  ( -0.0000000000000000000, -0.0000000000000000000, 1.000000000000000000 ) ) ;
#62 = CARTESIAN_POINT ( 'NONE',  ( 0.0000000000000000000, 0.0000000000000000000, -1.310000000000000500 ) ) ;
#63 = AXIS2_PLACEMENT_3D ( 'NONE', #62, #61, #65 ) ;
#64 = CARTESIAN_POINT ( 'NONE',  ( 0.0000000000000000000, 15.00000000000004800, 0.4333653478553185500 ) ) ;
#65 = DIRECTION ( 'NONE',  ( 1.000000000000000000, 0.0000000000000000000, 0.0000000000000000000 ) ) ;
#66 = DIRECTION ( 'NONE',  ( -0.0000000000000000000, -0.0000000000000000000, 1.000000000000000000 ) ) ;
#67 = DIRECTION ( 'NONE',  ( 1.000000000000000000, 0.0000000000000000000, 0.0000000000000000000 ) ) ;
#68 = CYLINDRICAL_SURFACE ( 'NONE', #71, 15.00000000000000000 ) ;
#69 =( GEOMETRIC_REPRESENTATION_CONTEXT ( 3 ) GLOBAL_UNCERTAINTY_ASSIGNED_CONTEXT ( ( #26 ) ) GLOBAL_UNIT_ASSIGNED_CONTEXT ( ( #41, #29, #4 ) ) REPRESENTATION_CONTEXT ( 'NONE', 'WORKASPACE' ) );
#70 = CARTESIAN_POINT ( 'NONE',  ( 0.0000000000000000000, 0.0000000000000000000, 4.308132045400366600 ) ) ;
#71 = AXIS2_PLACEMENT_3D ( 'NONE', #70, #66, #67 ) ;
#72 = CIRCLE ( 'NONE', #63, 15.00000000000000000 ) ;
#73 = CARTESIAN_POINT ( 'NONE',  ( 15.00000000000000400, 0.0000000000000000000, 0.4333653478553181100 ) ) ;
#74 = FACE_OUTER_BOUND ( 'NONE', #146, .T. ) ;
#75 = CARTESIAN_POINT ( 'NONE',  ( 0.0000000000000000000, 0.0000000000000000000, 0.4333653478553181100 ) ) ;
#76 = FILL_AREA_STYLE_COLOUR ( '', #85 ) ;
#77 = CIRCLE ( 'NONE', #83, 15.00000000000000200 ) ;
#78 = MECHANICAL_DESIGN_GEOMETRIC_PRESENTATION_REPRESENTATION (  '', ( #80 ), #113 ) ;
#79 = PRESENTATION_LAYER_ASSIGNMENT (  '', '', ( #80 ) ) ;
#80 = STYLED_ITEM ( 'NONE', ( #91 ), #145 ) ;
#81 = DIRECTION ( 'NONE',  ( 1.000000000000000000, 0.0000000000000000000, 0.0000000000000000000 ) ) ;
#82 = DIRECTION ( 'NONE',  ( -0.0000000000000000000, -0.0000000000000000000, 1.000000000000000000 ) ) ;
#83 = AXIS2_PLACEMENT_3D ( 'NONE', #75, #84, #81 ) ;
#84 = DIRECTION ( 'NONE',  ( -0.0000000000000000000, -0.0000000000000000000, 1.000000000000000000 ) ) ;
#85 = COLOUR_RGB ( '',0.9568627450980391500, 0.9490196078431372100, 0.9607843137254902200 ) ;
#86 = SURFACE_SIDE_STYLE ('',( #87 ) ) ;
#87 = SURFACE_STYLE_FILL_AREA ( #89 ) ;
#88 = LINE ( 'NONE', #93, #90 ) ;
#89 = FILL_AREA_STYLE ('',( #76 ) ) ;
#90 = VECTOR ( 'NONE', #82, 1000.000000000000000 ) ;
#91 = PRESENTATION_STYLE_ASSIGNMENT (( #92 ) ) ;
#92 = SURFACE_STYLE_USAGE ( .BOTH. , #86 ) ;
#93 = CARTESIAN_POINT ( 'NONE',  ( 15.00000000000000000, 0.0000000000000000000, 4.308132045400366600 ) ) ;
#94 = PRESENTATION_LAYER_ASSIGNMENT (  '', '', ( #95 ) ) ;
#95 = STYLED_ITEM ( 'NONE', ( #96 ), #149 ) ;
#96 = PRESENTATION_STYLE_ASSIGNMENT (( #97 ) ) ;
#97 = SURFACE_STYLE_USAGE ( .BOTH. , #98 ) ;
#98 = SURFACE_SIDE_STYLE ('',( #99 ) ) ;
#99 = SURFACE_STYLE_FILL_AREA ( #100 ) ;
#100 = FILL_AREA_STYLE ('',( #101 ) ) ;
#101 = FILL_AREA_STYLE_COLOUR ( '', #102 ) ;
#102 = COLOUR_RGB ( '',0.9568627450980391500, 0.9490196078431372100, 0.9607843137254902200 ) ;
#103 = FACE_OUTER_BOUND ( 'NONE', #150, .T. ) ;
#104 = DIRECTION ( 'NONE',  ( 0.0000000000000000000, 1.000000000000000000, 0.0000000000000000000 ) ) ;
#105 = DIRECTION ( 'NONE',  ( -1.000000000000000000, 0.0000000000000000000, 0.0000000000000000000 ) ) ;
#106 = AXIS2_PLACEMENT_3D ( 'NONE', #111, #105, #104 ) ;
#107 = CARTESIAN_POINT ( 'NONE',  ( -1.836909530733571800E-015, -15.00000000000004800, 0.4333653478553185500 ) ) ;
#108 =( NAMED_UNIT ( * ) SI_UNIT ( $, .STERADIAN. ) SOLID_ANGLE_UNIT ( ) );
#109 = UNCERTAINTY_MEASURE_WITH_UNIT (LENGTH_MEASURE( 1.000000000000000100E-005 ), #110, 'distance_accuracy_value', 'NONE');
#110 =( LENGTH_UNIT ( ) NAMED_UNIT ( * ) SI_UNIT ( .MILLI., .METRE. ) );
#111 = CARTESIAN_POINT ( 'NONE',  ( 0.0000000000000000000, 0.0000000000000000000, -127.4600000000000200 ) ) ;
#112 = SPHERICAL_SURFACE ( 'NONE', #106, 128.7700000000000100 ) ;
#113 =( GEOMETRIC_REPRESENTATION_CONTEXT ( 3 ) GLOBAL_UNCERTAINTY_ASSIGNED_CONTEXT ( ( #109 ) ) GLOBAL_UNIT_ASSIGNED_CONTEXT ( ( #110, #114, #108 ) ) REPRESENTATION_CONTEXT ( 'NONE', 'WORKASPACE' ) );
#114 =( NAMED_UNIT ( * ) PLANE_ANGLE_UNIT ( ) SI_UNIT ( $, .RADIAN. ) );
#115 =( LENGTH_UNIT ( ) NAMED_UNIT ( * ) SI_UNIT ( .MILLI., .METRE. ) );
#116 = MECHANICAL_DESIGN_GEOMETRIC_PRESENTATION_REPRESENTATION (  '', ( #95 ), #120 ) ;
#117 = CARTESIAN_POINT ( 'NONE',  ( 0.0000000000000000000, 4.812861920649097600E-016, -1.310000000000000100 ) ) ;
#118 =( NAMED_UNIT ( * ) SI_UNIT ( $, .STERADIAN. ) SOLID_ANGLE_UNIT ( ) );
#119 =( NAMED_UNIT ( * ) PLANE_ANGLE_UNIT ( ) SI_UNIT ( $, .RADIAN. ) );
#120 =( GEOMETRIC_REPRESENTATION_CONTEXT ( 3 ) GLOBAL_UNCERTAINTY_ASSIGNED_CONTEXT ( ( #121 ) ) GLOBAL_UNIT_ASSIGNED_CONTEXT ( ( #115, #119, #118 ) ) REPRESENTATION_CONTEXT ( 'NONE', 'WORKASPACE' ) );
#121 = UNCERTAINTY_MEASURE_WITH_UNIT (LENGTH_MEASURE( 1.000000000000000100E-005 ), #115, 'distance_accuracy_value', 'NONE');
#122 = AXIS2_PLACEMENT_3D ( 'NONE', #117, #128, #127 ) ;
#123 = PLANE ( 'NONE',  #122 ) ;
#124 = AXIS2_PLACEMENT_3D ( 'NONE', #126, #130, #259 ) ;
#125 = CIRCLE ( 'NONE', #124, 15.00000000000000200 ) ;
#126 = CARTESIAN_POINT ( 'NONE',  ( 0.0000000000000000000, 0.0000000000000000000, 0.4333653478553181100 ) ) ;
#127 = DIRECTION ( 'NONE',  ( 1.000000000000000000, 0.0000000000000000000, 0.0000000000000000000 ) ) ;
#128 = DIRECTION ( 'NONE',  ( 0.0000000000000000000, -0.0000000000000000000, 1.000000000000000000 ) ) ;
#129 = CARTESIAN_POINT ( 'NONE',  ( 15.00000000000000000, 0.0000000000000000000, -1.310000000000000500 ) ) ;
#130 = DIRECTION ( 'NONE',  ( -0.0000000000000000000, -0.0000000000000000000, 1.000000000000000000 ) ) ;
#131 = EDGE_LOOP ( 'NONE', ( #132, #133, #5, #3 ) ) ;
#132 = ORIENTED_EDGE ( 'NONE', *, *, #158, .F. ) ;
#133 = ORIENTED_EDGE ( 'NONE', *, *, #2, .T. ) ;
#134 = MANIFOLD_SOLID_BREP ( 'NONE', #153 ) ;
#135 = ADVANCED_FACE ( 'NONE', ( #54 ), #68, .T. ) ;
#136 = EDGE_LOOP ( 'NONE', ( #137, #171, #174, #140, #143 ) ) ;
#137 = ORIENTED_EDGE ( 'NONE', *, *, #138, .T. ) ;
#138 = EDGE_CURVE ( 'NONE', #154, #170, #72, .T. ) ;
#139 = VERTEX_POINT ( 'NONE', #64 ) ;
#140 = ORIENTED_EDGE ( 'NONE', *, *, #141, .F. ) ;
#141 = EDGE_CURVE ( 'NONE', #142, #139, #77, .T. ) ;
#142 = VERTEX_POINT ( 'NONE', #73 ) ;
#143 = ORIENTED_EDGE ( 'NONE', *, *, #144, .F. ) ;
#144 = EDGE_CURVE ( 'NONE', #154, #142, #88, .T. ) ;
#145 = ADVANCED_FACE ( 'NONE', ( #74 ), #112, .T. ) ;
#146 = EDGE_LOOP ( 'NONE', ( #147, #155, #157, #160 ) ) ;
#147 = ORIENTED_EDGE ( 'NONE', *, *, #175, .T. ) ;
#148 = VERTEX_POINT ( 'NONE', #107 ) ;
#149 = ADVANCED_FACE ( 'NONE', ( #103 ), #123, .F. ) ;
#150 = EDGE_LOOP ( 'NONE', ( #151, #152 ) ) ;
#151 = ORIENTED_EDGE ( 'NONE', *, *, #138, .F. ) ;
#152 = ORIENTED_EDGE ( 'NONE', *, *, #166, .F. ) ;
#153 = CLOSED_SHELL ( 'NONE', ( #135, #145, #162, #1, #149 ) ) ;
#154 = VERTEX_POINT ( 'NONE', #129 ) ;
#155 = ORIENTED_EDGE ( 'NONE', *, *, #156, .T. ) ;
#156 = EDGE_CURVE ( 'NONE', #173, #148, #125, .T. ) ;
#157 = ORIENTED_EDGE ( 'NONE', *, *, #158, .T. ) ;
#158 = EDGE_CURVE ( 'NONE', #148, #159, #230, .T. ) ;
#159 = VERTEX_POINT ( 'NONE', #217 ) ;
#160 = ORIENTED_EDGE ( 'NONE', *, *, #161, .F. ) ;
#161 = EDGE_CURVE ( 'NONE', #139, #159, #196, .T. ) ;
#162 = ADVANCED_FACE ( 'NONE', ( #197 ), #240, .T. ) ;
#163 = EDGE_LOOP ( 'NONE', ( #164, #165, #167, #168, #169 ) ) ;
#164 = ORIENTED_EDGE ( 'NONE', *, *, #172, .F. ) ;
#165 = ORIENTED_EDGE ( 'NONE', *, *, #166, .T. ) ;
#166 = EDGE_CURVE ( 'NONE', #170, #154, #216, .T. ) ;
#167 = ORIENTED_EDGE ( 'NONE', *, *, #144, .T. ) ;
#168 = ORIENTED_EDGE ( 'NONE', *, *, #2, .F. ) ;
#169 = ORIENTED_EDGE ( 'NONE', *, *, #156, .F. ) ;
#170 = VERTEX_POINT ( 'NONE', #228 ) ;
#171 = ORIENTED_EDGE ( 'NONE', *, *, #172, .T. ) ;
#172 = EDGE_CURVE ( 'NONE', #170, #173, #227, .T. ) ;
#173 = VERTEX_POINT ( 'NONE', #189 ) ;
#174 = ORIENTED_EDGE ( 'NONE', *, *, #175, .F. ) ;
#175 = EDGE_CURVE ( 'NONE', #139, #173, #188, .T. ) ;
#176 = DIRECTION ( 'NONE',  ( 0.0000000000000000000, 0.0000000000000000000, -1.000000000000000000 ) ) ;
#177 = AXIS2_PLACEMENT_3D ( 'NONE', #195, #194, #176 ) ;
#178 = PRESENTATION_LAYER_ASSIGNMENT (  '', '', ( #179 ) ) ;
#179 = STYLED_ITEM ( 'NONE', ( #180 ), #206 ) ;
#180 = PRESENTATION_STYLE_ASSIGNMENT (( #181 ) ) ;
#181 = SURFACE_STYLE_USAGE ( .BOTH. , #182 ) ;
#182 = SURFACE_SIDE_STYLE ('',( #183 ) ) ;
#183 = SURFACE_STYLE_FILL_AREA ( #184 ) ;
#184 = FILL_AREA_STYLE ('',( #185 ) ) ;
#185 = FILL_AREA_STYLE_COLOUR ( '', #186 ) ;
#186 = COLOUR_RGB ( '',0.7960784313725489700, 0.8235294117647058400, 0.9372549019607843100 ) ;
#187 = SHAPE_DEFINITION_REPRESENTATION ( #249, #206 ) ;
#188 = CIRCLE ( 'NONE', #245, 15.00000000000000200 ) ;
#189 = CARTESIAN_POINT ( 'NONE',  ( -15.00000000000000400, 1.836909530733566300E-015, 0.4333653478553181100 ) ) ;
#190 = DIRECTION ( 'NONE',  ( -0.0000000000000000000, -0.0000000000000000000, 1.000000000000000000 ) ) ;
#191 = VECTOR ( 'NONE', #190, 1000.000000000000000 ) ;
#192 = UNCERTAINTY_MEASURE_WITH_UNIT (LENGTH_MEASURE( 1.000000000000000100E-005 ), #234, 'distance_accuracy_value', 'NONE');
#193 = CARTESIAN_POINT ( 'NONE',  ( 0.0000000000000000000, 0.0000000000000000000, -127.4600000000000200 ) ) ;
#194 = DIRECTION ( 'NONE',  ( 1.000000000000000000, 0.0000000000000000000, 0.0000000000000000000 ) ) ;
#195 = CARTESIAN_POINT ( 'NONE',  ( 0.0000000000000000000, 0.0000000000000000000, -127.4600000000000200 ) ) ;
#196 = CIRCLE ( 'NONE', #177, 128.7700000000000400 ) ;
#197 = FACE_OUTER_BOUND ( 'NONE', #131, .T. ) ;
#198 = STYLED_ITEM ( 'NONE', ( #199 ), #162 ) ;
#199 = PRESENTATION_STYLE_ASSIGNMENT (( #200 ) ) ;
#200 = SURFACE_STYLE_USAGE ( .BOTH. , #201 ) ;
#201 = SURFACE_SIDE_STYLE ('',( #202 ) ) ;
#202 = SURFACE_STYLE_FILL_AREA ( #203 ) ;
#203 = FILL_AREA_STYLE ('',( #204 ) ) ;
#204 = FILL_AREA_STYLE_COLOUR ( '', #205 ) ;
#205 = COLOUR_RGB ( '',0.9568627450980391500, 0.9490196078431372100, 0.9607843137254902200 ) ;
#206 = ADVANCED_BREP_SHAPE_REPRESENTATION ( '19316-E0W', ( #134, #246 ), #207 ) ;
#207 =( GEOMETRIC_REPRESENTATION_CONTEXT ( 3 ) GLOBAL_UNCERTAINTY_ASSIGNED_CONTEXT ( ( #261 ) ) GLOBAL_UNIT_ASSIGNED_CONTEXT ( ( #260, #236, #235 ) ) REPRESENTATION_CONTEXT ( 'NONE', 'WORKASPACE' ) );
#208 = DIRECTION ( 'NONE',  ( 0.0000000000000000000, 1.000000000000000000, 0.0000000000000000000 ) ) ;
#209 = DIRECTION ( 'NONE',  ( -1.000000000000000000, 0.0000000000000000000, 0.0000000000000000000 ) ) ;
#210 = CARTESIAN_POINT ( 'NONE',  ( 0.0000000000000000000, 0.0000000000000000000, -127.4600000000000200 ) ) ;
#211 = DIRECTION ( 'NONE',  ( -1.000000000000000000, 1.224606353822377300E-016, 0.0000000000000000000 ) ) ;
#212 =( NAMED_UNIT ( * ) PLANE_ANGLE_UNIT ( ) SI_UNIT ( $, .RADIAN. ) );
#213 = DIRECTION ( 'NONE',  ( -0.0000000000000000000, -0.0000000000000000000, 1.000000000000000000 ) ) ;
#214 = CARTESIAN_POINT ( 'NONE',  ( 0.0000000000000000000, 0.0000000000000000000, -1.310000000000000500 ) ) ;
#215 = AXIS2_PLACEMENT_3D ( 'NONE', #214, #213, #229 ) ;
#216 = CIRCLE ( 'NONE', #215, 15.00000000000000000 ) ;
#217 = CARTESIAN_POINT ( 'NONE',  ( 0.0000000000000000000, 7.884628009085377400E-015, 1.310000000000005600 ) ) ;
#218 =( LENGTH_UNIT ( ) NAMED_UNIT ( * ) SI_UNIT ( .MILLI., .METRE. ) );
#219 = MECHANICAL_DESIGN_GEOMETRIC_PRESENTATION_REPRESENTATION (  '', ( #179 ), #248 ) ;
#220 = DIRECTION ( 'NONE',  ( -1.224606353822377300E-016, -1.000000000000000000, 0.0000000000000000000 ) ) ;
#221 = AXIS2_PLACEMENT_3D ( 'NONE', #193, #211, #220 ) ;
#222 = AXIS2_PLACEMENT_3D ( 'NONE', #210, #209, #208 ) ;
#223 = UNCERTAINTY_MEASURE_WITH_UNIT (LENGTH_MEASURE( 1.000000000000000100E-005 ), #218, 'distance_accuracy_value', 'NONE');
#224 =( NAMED_UNIT ( * ) SI_UNIT ( $, .STERADIAN. ) SOLID_ANGLE_UNIT ( ) );
#225 =( NAMED_UNIT ( * ) PLANE_ANGLE_UNIT ( ) SI_UNIT ( $, .RADIAN. ) );
#226 = CARTESIAN_POINT ( 'NONE',  ( -15.00000000000000000, 1.836909530733565900E-015, 4.308132045400366600 ) ) ;
#227 = LINE ( 'NONE', #226, #191 ) ;
#228 = CARTESIAN_POINT ( 'NONE',  ( -15.00000000000000000, 1.836909530733565900E-015, -1.310000000000000500 ) ) ;
#229 = DIRECTION ( 'NONE',  ( 1.000000000000000000, 0.0000000000000000000, 0.0000000000000000000 ) ) ;
#230 = CIRCLE ( 'NONE', #221, 128.7700000000000100 ) ;
#231 = APPLICATION_CONTEXT ( 'automotive_design' ) ;
#232 = DIRECTION ( 'NONE',  ( 1.000000000000000000, 0.0000000000000000000, 0.0000000000000000000 ) ) ;
#233 = DIRECTION ( 'NONE',  ( 0.0000000000000000000, 0.0000000000000000000, 1.000000000000000000 ) ) ;
#234 =( LENGTH_UNIT ( ) NAMED_UNIT ( * ) SI_UNIT ( .MILLI., .METRE. ) );
#235 =( NAMED_UNIT ( * ) SI_UNIT ( $, .STERADIAN. ) SOLID_ANGLE_UNIT ( ) );
#236 =( NAMED_UNIT ( * ) PLANE_ANGLE_UNIT ( ) SI_UNIT ( $, .RADIAN. ) );
#237 =( NAMED_UNIT ( * ) SI_UNIT ( $, .STERADIAN. ) SOLID_ANGLE_UNIT ( ) );
#238 = MECHANICAL_DESIGN_GEOMETRIC_PRESENTATION_REPRESENTATION (  '', ( #198 ), #241 ) ;
#239 = PRESENTATION_LAYER_ASSIGNMENT (  '', '', ( #198 ) ) ;
#240 = SPHERICAL_SURFACE ( 'NONE', #222, 128.7700000000000100 ) ;
#241 =( GEOMETRIC_REPRESENTATION_CONTEXT ( 3 ) GLOBAL_UNCERTAINTY_ASSIGNED_CONTEXT ( ( #192 ) ) GLOBAL_UNIT_ASSIGNED_CONTEXT ( ( #234, #212, #237 ) ) REPRESENTATION_CONTEXT ( 'NONE', 'WORKASPACE' ) );
#242 = DIRECTION ( 'NONE',  ( 1.000000000000000000, 0.0000000000000000000, 0.0000000000000000000 ) ) ;
#243 = DIRECTION ( 'NONE',  ( -0.0000000000000000000, -0.0000000000000000000, 1.000000000000000000 ) ) ;
#244 = CARTESIAN_POINT ( 'NONE',  ( 0.0000000000000000000, 0.0000000000000000000, 0.4333653478553181100 ) ) ;
#245 = AXIS2_PLACEMENT_3D ( 'NONE', #244, #243, #242 ) ;
#246 = AXIS2_PLACEMENT_3D ( 'NONE', #247, #233, #232 ) ;
#247 = CARTESIAN_POINT ( 'NONE',  ( 0.0000000000000000000, 0.0000000000000000000, 0.0000000000000000000 ) ) ;
#248 =( GEOMETRIC_REPRESENTATION_CONTEXT ( 3 ) GLOBAL_UNCERTAINTY_ASSIGNED_CONTEXT ( ( #223 ) ) GLOBAL_UNIT_ASSIGNED_CONTEXT ( ( #218, #225, #224 ) ) REPRESENTATION_CONTEXT ( 'NONE', 'WORKASPACE' ) );
#249 = PRODUCT_DEFINITION_SHAPE ( 'NONE', 'NONE',  #252 ) ;
#250 = PRODUCT_RELATED_PRODUCT_CATEGORY ( 'part', '', ( #256 ) ) ;
#251 = PRODUCT_DEFINITION_FORMATION_WITH_SPECIFIED_SOURCE ( 'ANY', '', #256, .NOT_KNOWN. ) ;
#252 = PRODUCT_DEFINITION ( 'UNKNOWN', '', #251, #253 ) ;
#253 = PRODUCT_DEFINITION_CONTEXT ( 'detailed design', #255, 'design' ) ;
#254 = APPLICATION_PROTOCOL_DEFINITION ( 'draft international standard', 'automotive_design', 1998, #255 ) ;
#255 = APPLICATION_CONTEXT ( 'automotive_design' ) ;
#256 = PRODUCT ( '19316-E0W', '19316-E0W', '', ( #257 ) ) ;
#257 = PRODUCT_CONTEXT ( 'NONE', #231, 'mechanical' ) ;
#258 = APPLICATION_PROTOCOL_DEFINITION ( 'draft international standard', 'automotive_design', 1998, #231 ) ;
#259 = DIRECTION ( 'NONE',  ( 1.000000000000000000, 0.0000000000000000000, 0.0000000000000000000 ) ) ;
#260 =( LENGTH_UNIT ( ) NAMED_UNIT ( * ) SI_UNIT ( .MILLI., .METRE. ) );
#261 = UNCERTAINTY_MEASURE_WITH_UNIT (LENGTH_MEASURE( 1.000000000000000100E-005 ), #260, 'distance_accuracy_value', 'NONE');
ENDSEC;
END-ISO-10303-21;
