ISO-10303-21;
HEADER;
FILE_DESCRIPTION (( 'STEP AP203' ),
    '1' );
FILE_NAME ('Web Model 68389.STEP',
    '2017-01-31T19:54:15',
    ( '' ),
    ( '' ),
    'SwSTEP 2.0',
    'SolidWorks 2016',
    '' );
FILE_SCHEMA (( 'CONFIG_CONTROL_DESIGN' ));
ENDSEC;

DATA;
#1 = CARTESIAN_POINT ( 'NONE',  ( 12.50000000000000000, 19.00000000000000400, 3.000000000000000000 ) ) ;
#2 = PERSON ( 'UNSPECIFIED', 'UNSPECIFIED', 'UNSPECIFIED', ('UNSPECIFIED'), ('UNSPECIFIED'), ('UNSPECIFIED') ) ;
#3 = ADVANCED_FACE ( 'NONE', ( #218 ), #94, .F. ) ;
#4 = LOCAL_TIME ( 14, 54, 15.00000000000000000, #152 ) ;
#5 = ORIENTED_EDGE ( 'NONE', *, *, #213, .F. ) ;
#6 = CC_DESIGN_APPROVAL ( #228, ( #215 ) ) ;
#7 = DIRECTION ( 'NONE',  ( -1.387778780781445400E-016, 1.000000000000000000, 0.0000000000000000000 ) ) ;
#8 = DIRECTION ( 'NONE',  ( 1.387778780781445400E-016, -1.000000000000000000, 0.0000000000000000000 ) ) ;
#9 = CARTESIAN_POINT ( 'NONE',  ( 0.0000000000000000000, 0.0000000000000000000, 0.0000000000000000000 ) ) ;
#10 = LOCAL_TIME ( 14, 54, 15.00000000000000000, #145 ) ;
#11 = DIRECTION ( 'NONE',  ( 0.0000000000000000000, 0.0000000000000000000, -1.000000000000000000 ) ) ;
#12 = EDGE_LOOP ( 'NONE', ( #32, #123, #158, #231 ) ) ;
#13 = PLANE ( 'NONE',  #90 ) ;
#14 = CC_DESIGN_PERSON_AND_ORGANIZATION_ASSIGNMENT ( #54, #125, ( #170 ) ) ;
#15 = DATE_TIME_ROLE ( 'creation_date' ) ;
#16 = DIRECTION ( 'NONE',  ( 0.0000000000000000000, 0.0000000000000000000, 1.000000000000000000 ) ) ;
#17 = APPROVAL_ROLE ( '' ) ;
#18 = LINE ( 'NONE', #77, #225 ) ;
#19 = VECTOR ( 'NONE', #38, 1000.000000000000000 ) ;
#20 = EDGE_CURVE ( 'NONE', #165, #87, #115, .T. ) ;
#21 = EDGE_CURVE ( 'NONE', #214, #93, #39, .T. ) ;
#22 = COORDINATED_UNIVERSAL_TIME_OFFSET ( 5, 0, .BEHIND. ) ;
#23 = ORIENTED_EDGE ( 'NONE', *, *, #63, .T. ) ;
#24 = CARTESIAN_POINT ( 'NONE',  ( -12.50000000000000000, 19.00000000000000000, 0.0000000000000000000 ) ) ;
#25 = CARTESIAN_POINT ( 'NONE',  ( 12.50000000000000000, 19.00000000000000400, 3.000000000000000000 ) ) ;
#26 = FACE_OUTER_BOUND ( 'NONE', #48, .T. ) ;
#27 = VERTEX_POINT ( 'NONE', #24 ) ;
#28 = CARTESIAN_POINT ( 'NONE',  ( -12.50000000000000000, 19.00000000000000000, 0.0000000000000000000 ) ) ;
#29 = CARTESIAN_POINT ( 'NONE',  ( -12.50000000000000000, 19.00000000000000000, 3.000000000000000000 ) ) ;
#30 = DATE_AND_TIME ( #74, #86 ) ;
#31 = EDGE_CURVE ( 'NONE', #81, #194, #150, .T. ) ;
#32 = ORIENTED_EDGE ( 'NONE', *, *, #31, .T. ) ;
#33 = AXIS2_PLACEMENT_3D ( 'NONE', #95, #41, #133 ) ;
#34 = EDGE_CURVE ( 'NONE', #117, #81, #83, .T. ) ;
#35 = FACE_OUTER_BOUND ( 'NONE', #144, .T. ) ;
#36 = ORIENTED_EDGE ( 'NONE', *, *, #162, .F. ) ;
#37 = VECTOR ( 'NONE', #137, 1000.000000000000000 ) ;
#38 = DIRECTION ( 'NONE',  ( -1.369518533665900300E-016, 1.000000000000000000, -0.0000000000000000000 ) ) ;
#39 = LINE ( 'NONE', #40, #75 ) ;
#40 = CARTESIAN_POINT ( 'NONE',  ( -12.50000000000000000, 19.00000000000000000, 3.000000000000000000 ) ) ;
#41 = DIRECTION ( 'NONE',  ( -1.000000000000000000, -1.369518533665900100E-016, 0.0000000000000000000 ) ) ;
#42 = LINE ( 'NONE', #166, #222 ) ;
#43 = CARTESIAN_POINT ( 'NONE',  ( -12.50000000000000000, 19.00000000000000000, 3.000000000000000000 ) ) ;
#44 =( LENGTH_UNIT ( ) NAMED_UNIT ( * ) SI_UNIT ( .MILLI., .METRE. ) );
#45 = CARTESIAN_POINT ( 'NONE',  ( 12.50000000000000000, 19.00000000000000400, 3.000000000000000000 ) ) ;
#46 = CARTESIAN_POINT ( 'NONE',  ( -12.49999999999999500, -19.00000000000000000, 0.0000000000000000000 ) ) ;
#47 = SHAPE_DEFINITION_REPRESENTATION ( #182, #230 ) ;
#48 = EDGE_LOOP ( 'NONE', ( #131, #160, #61, #111 ) ) ;
#49 = CARTESIAN_POINT ( 'NONE',  ( 12.50000000000000000, 19.00000000000000400, 0.0000000000000000000 ) ) ;
#50 = APPROVAL_STATUS ( 'not_yet_approved' ) ;
#51 = PRODUCT_RELATED_PRODUCT_CATEGORY ( 'detail', '', ( #127 ) ) ;
#52 = APPROVAL_ROLE ( '' ) ;
#53 = DATE_AND_TIME ( #98, #148 ) ;
#54 = PERSON_AND_ORGANIZATION ( #2, #138 ) ;
#55 = CC_DESIGN_DATE_AND_TIME_ASSIGNMENT ( #53, #15, ( #179 ) ) ;
#56 = APPROVAL_DATE_TIME ( #229, #191 ) ;
#57 = PLANE ( 'NONE',  #198 ) ;
#58 = CARTESIAN_POINT ( 'NONE',  ( 12.50000000000000000, 19.00000000000000400, 0.0000000000000000000 ) ) ;
#59 = CC_DESIGN_PERSON_AND_ORGANIZATION_ASSIGNMENT ( #193, #103, ( #215 ) ) ;
#60 = LINE ( 'NONE', #224, #69 ) ;
#61 = ORIENTED_EDGE ( 'NONE', *, *, #234, .F. ) ;
#62 = CARTESIAN_POINT ( 'NONE',  ( -12.49999999999999500, -19.00000000000000000, 0.0000000000000000000 ) ) ;
#63 = EDGE_CURVE ( 'NONE', #93, #165, #42, .T. ) ;
#64 = DIRECTION ( 'NONE',  ( 1.000000000000000000, 1.387778780781445400E-016, 0.0000000000000000000 ) ) ;
#65 = PERSON_AND_ORGANIZATION_ROLE ( 'creator' ) ;
#66 = PERSON_AND_ORGANIZATION_ROLE ( 'design_owner' ) ;
#67 = APPROVAL_STATUS ( 'not_yet_approved' ) ;
#68 = ORIENTED_EDGE ( 'NONE', *, *, #20, .T. ) ;
#69 = VECTOR ( 'NONE', #206, 1000.000000000000000 ) ;
#70 = ORIENTED_EDGE ( 'NONE', *, *, #234, .T. ) ;
#71 =( GEOMETRIC_REPRESENTATION_CONTEXT ( 3 ) GLOBAL_UNCERTAINTY_ASSIGNED_CONTEXT ( ( #172 ) ) GLOBAL_UNIT_ASSIGNED_CONTEXT ( ( #44, #116, #167 ) ) REPRESENTATION_CONTEXT ( 'NONE', 'WORKASPACE' ) );
#72 = CARTESIAN_POINT ( 'NONE',  ( 12.50000000000000500, -18.99999999999999600, 0.0000000000000000000 ) ) ;
#73 = ADVANCED_FACE ( 'NONE', ( #203 ), #57, .F. ) ;
#74 = CALENDAR_DATE ( 2017, 31, 1 ) ;
#75 = VECTOR ( 'NONE', #217, 1000.000000000000000 ) ;
#76 = DIRECTION ( 'NONE',  ( -1.369518533665900100E-016, 1.000000000000000000, 0.0000000000000000000 ) ) ;
#77 = CARTESIAN_POINT ( 'NONE',  ( 12.50000000000000500, -18.99999999999999600, 3.000000000000000000 ) ) ;
#78 = PLANE ( 'NONE',  #128 ) ;
#79 = APPROVAL_PERSON_ORGANIZATION ( #130, #228, #17 ) ;
#80 = CARTESIAN_POINT ( 'NONE',  ( 12.50000000000000500, -18.99999999999999600, 3.000000000000000000 ) ) ;
#81 = VERTEX_POINT ( 'NONE', #112 ) ;
#82 = APPROVAL_ROLE ( '' ) ;
#83 = LINE ( 'NONE', #72, #143 ) ;
#84 = DIRECTION ( 'NONE',  ( 1.000000000000000000, 0.0000000000000000000, 0.0000000000000000000 ) ) ;
#85 = DATE_TIME_ROLE ( 'classification_date' ) ;
#86 = LOCAL_TIME ( 14, 54, 15.00000000000000000, #110 ) ;
#87 = VERTEX_POINT ( 'NONE', #25 ) ;
#88 = AXIS2_PLACEMENT_3D ( 'NONE', #204, #97, #118 ) ;
#89 = ADVANCED_FACE ( 'NONE', ( #35 ), #151, .F. ) ;
#90 = AXIS2_PLACEMENT_3D ( 'NONE', #201, #8, #64 ) ;
#91 = CALENDAR_DATE ( 2017, 31, 1 ) ;
#92 = LINE ( 'NONE', #43, #109 ) ;
#93 = VERTEX_POINT ( 'NONE', #96 ) ;
#94 = PLANE ( 'NONE',  #33 ) ;
#95 = CARTESIAN_POINT ( 'NONE',  ( 12.50000000000000000, 19.00000000000000400, 3.000000000000000000 ) ) ;
#96 = CARTESIAN_POINT ( 'NONE',  ( -12.49999999999999500, -19.00000000000000000, 3.000000000000000000 ) ) ;
#97 = DIRECTION ( 'NONE',  ( 0.0000000000000000000, 0.0000000000000000000, -1.000000000000000000 ) ) ;
#98 = CALENDAR_DATE ( 2017, 31, 1 ) ;
#99 = DIRECTION ( 'NONE',  ( -0.0000000000000000000, -0.0000000000000000000, -1.000000000000000000 ) ) ;
#100 = DIRECTION ( 'NONE',  ( 1.369518533665900300E-016, -1.000000000000000000, 0.0000000000000000000 ) ) ;
#101 = PERSON_AND_ORGANIZATION_ROLE ( 'creator' ) ;
#102 = ORIENTED_EDGE ( 'NONE', *, *, #213, .T. ) ;
#103 = PERSON_AND_ORGANIZATION_ROLE ( 'classification_officer' ) ;
#104 = CALENDAR_DATE ( 2017, 31, 1 ) ;
#105 = EDGE_LOOP ( 'NONE', ( #5, #36, #140, #200 ) ) ;
#106 = PERSON_AND_ORGANIZATION ( #2, #138 ) ;
#107 = ORIENTED_EDGE ( 'NONE', *, *, #220, .T. ) ;
#108 = APPROVAL_PERSON_ORGANIZATION ( #202, #191, #82 ) ;
#109 = VECTOR ( 'NONE', #184, 1000.000000000000000 ) ;
#110 = COORDINATED_UNIVERSAL_TIME_OFFSET ( 5, 0, .BEHIND. ) ;
#111 = ORIENTED_EDGE ( 'NONE', *, *, #173, .T. ) ;
#112 = CARTESIAN_POINT ( 'NONE',  ( 12.50000000000000500, -18.99999999999999600, 0.0000000000000000000 ) ) ;
#113 = DIRECTION ( 'NONE',  ( 1.000000000000000000, 1.387778780781445700E-016, -0.0000000000000000000 ) ) ;
#114 = DATE_AND_TIME ( #91, #156 ) ;
#115 = LINE ( 'NONE', #1, #19 ) ;
#116 =( NAMED_UNIT ( * ) PLANE_ANGLE_UNIT ( ) SI_UNIT ( $, .RADIAN. ) );
#117 = VERTEX_POINT ( 'NONE', #46 ) ;
#118 = DIRECTION ( 'NONE',  ( -1.000000000000000000, 0.0000000000000000000, -0.0000000000000000000 ) ) ;
#119 = DESIGN_CONTEXT ( 'detailed design', #226, 'design' ) ;
#120 = DIRECTION ( 'NONE',  ( -1.000000000000000000, -1.387778780781445400E-016, 0.0000000000000000000 ) ) ;
#121 = APPLICATION_PROTOCOL_DEFINITION ( 'international standard', 'config_control_design', 1994, #157 ) ;
#122 = LINE ( 'NONE', #49, #37 ) ;
#123 = ORIENTED_EDGE ( 'NONE', *, *, #173, .F. ) ;
#124 = CC_DESIGN_DATE_AND_TIME_ASSIGNMENT ( #183, #85, ( #215 ) ) ;
#125 = PERSON_AND_ORGANIZATION_ROLE ( 'design_supplier' ) ;
#126 = APPROVAL_DATE_TIME ( #30, #228 ) ;
#127 = PRODUCT ( 'Web Model 68389', 'Web Model 68389', '', ( #208 ) ) ;
#128 = AXIS2_PLACEMENT_3D ( 'NONE', #80, #7, #120 ) ;
#129 = FACE_OUTER_BOUND ( 'NONE', #105, .T. ) ;
#130 = PERSON_AND_ORGANIZATION ( #2, #138 ) ;
#131 = ORIENTED_EDGE ( 'NONE', *, *, #162, .T. ) ;
#132 = EDGE_LOOP ( 'NONE', ( #186, #181, #159, #209 ) ) ;
#133 = DIRECTION ( 'NONE',  ( 1.369518533665900100E-016, -1.000000000000000000, 0.0000000000000000000 ) ) ;
#134 = CARTESIAN_POINT ( 'NONE',  ( -12.50000000000000000, 19.00000000000000000, 3.000000000000000000 ) ) ;
#135 = VECTOR ( 'NONE', #154, 1000.000000000000000 ) ;
#136 = DIRECTION ( 'NONE',  ( -1.000000000000000000, -1.387778780781445700E-016, 0.0000000000000000000 ) ) ;
#137 = DIRECTION ( 'NONE',  ( -1.000000000000000000, -1.387778780781445700E-016, 0.0000000000000000000 ) ) ;
#138 = ORGANIZATION ( 'UNSPECIFIED', 'UNSPECIFIED', '' ) ;
#139 = DIRECTION ( 'NONE',  ( -1.000000000000000000, 0.0000000000000000000, -0.0000000000000000000 ) ) ;
#140 = ORIENTED_EDGE ( 'NONE', *, *, #31, .F. ) ;
#141 = LINE ( 'NONE', #28, #174 ) ;
#142 = APPROVAL_PERSON_ORGANIZATION ( #237, #192, #52 ) ;
#143 = VECTOR ( 'NONE', #113, 1000.000000000000000 ) ;
#144 = EDGE_LOOP ( 'NONE', ( #146, #23, #68, #70 ) ) ;
#145 = COORDINATED_UNIVERSAL_TIME_OFFSET ( 5, 0, .BEHIND. ) ;
#146 = ORIENTED_EDGE ( 'NONE', *, *, #21, .T. ) ;
#147 = ADVANCED_FACE ( 'NONE', ( #129 ), #168, .T. ) ;
#148 = LOCAL_TIME ( 14, 54, 15.00000000000000000, #190 ) ;
#149 = FACE_OUTER_BOUND ( 'NONE', #132, .T. ) ;
#150 = LINE ( 'NONE', #58, #176 ) ;
#151 = PLANE ( 'NONE',  #88 ) ;
#152 = COORDINATED_UNIVERSAL_TIME_OFFSET ( 5, 0, .BEHIND. ) ;
#153 = CLOSED_SHELL ( 'NONE', ( #73, #196, #3, #216, #89, #147 ) ) ;
#154 = DIRECTION ( 'NONE',  ( -0.0000000000000000000, -0.0000000000000000000, -1.000000000000000000 ) ) ;
#155 = MANIFOLD_SOLID_BREP ( 'Extrude1', #153 ) ;
#156 = LOCAL_TIME ( 14, 54, 15.00000000000000000, #22 ) ;
#157 = APPLICATION_CONTEXT ( 'configuration controlled 3d designs of mechanical parts and assemblies' ) ;
#158 = ORIENTED_EDGE ( 'NONE', *, *, #20, .F. ) ;
#159 = ORIENTED_EDGE ( 'NONE', *, *, #63, .F. ) ;
#160 = ORIENTED_EDGE ( 'NONE', *, *, #220, .F. ) ;
#161 = DIRECTION ( 'NONE',  ( 1.000000000000000000, 1.369518533665900100E-016, -0.0000000000000000000 ) ) ;
#162 = EDGE_CURVE ( 'NONE', #194, #27, #122, .T. ) ;
#163 = DIRECTION ( 'NONE',  ( -1.369518533665900300E-016, 1.000000000000000000, -0.0000000000000000000 ) ) ;
#164 = LINE ( 'NONE', #45, #135 ) ;
#165 = VERTEX_POINT ( 'NONE', #187 ) ;
#166 = CARTESIAN_POINT ( 'NONE',  ( 12.50000000000000500, -18.99999999999999600, 3.000000000000000000 ) ) ;
#167 =( NAMED_UNIT ( * ) SI_UNIT ( $, .STERADIAN. ) SOLID_ANGLE_UNIT ( ) );
#168 = PLANE ( 'NONE',  #189 ) ;
#169 = ORIENTED_EDGE ( 'NONE', *, *, #21, .F. ) ;
#170 = PRODUCT_DEFINITION_FORMATION_WITH_SPECIFIED_SOURCE ( 'ANY', '', #127, .NOT_KNOWN. ) ;
#171 = AXIS2_PLACEMENT_3D ( 'NONE', #9, #16, #84 ) ;
#172 = UNCERTAINTY_MEASURE_WITH_UNIT (LENGTH_MEASURE( 1.000000000000000100E-005 ), #44, 'distance_accuracy_value', 'NONE');
#173 = EDGE_CURVE ( 'NONE', #87, #194, #164, .T. ) ;
#174 = VECTOR ( 'NONE', #100, 1000.000000000000000 ) ;
#175 = EDGE_LOOP ( 'NONE', ( #102, #212, #169, #107 ) ) ;
#176 = VECTOR ( 'NONE', #163, 1000.000000000000000 ) ;
#177 = EDGE_CURVE ( 'NONE', #93, #117, #60, .T. ) ;
#178 = DIRECTION ( 'NONE',  ( 1.000000000000000000, 1.387778780781445700E-016, -0.0000000000000000000 ) ) ;
#179 = PRODUCT_DEFINITION ( 'UNKNOWN', '', #170, #119 ) ;
#180 = VECTOR ( 'NONE', #136, 1000.000000000000000 ) ;
#181 = ORIENTED_EDGE ( 'NONE', *, *, #195, .F. ) ;
#182 = PRODUCT_DEFINITION_SHAPE ( 'NONE', 'NONE',  #179 ) ;
#183 = DATE_AND_TIME ( #233, #4 ) ;
#184 = DIRECTION ( 'NONE',  ( -0.0000000000000000000, -0.0000000000000000000, -1.000000000000000000 ) ) ;
#185 = CARTESIAN_POINT ( 'NONE',  ( 12.50000000000000000, 19.00000000000000400, 0.0000000000000000000 ) ) ;
#186 = ORIENTED_EDGE ( 'NONE', *, *, #34, .T. ) ;
#187 = CARTESIAN_POINT ( 'NONE',  ( 12.50000000000000500, -18.99999999999999600, 3.000000000000000000 ) ) ;
#188 = CC_DESIGN_APPROVAL ( #191, ( #179 ) ) ;
#189 = AXIS2_PLACEMENT_3D ( 'NONE', #62, #11, #139 ) ;
#190 = COORDINATED_UNIVERSAL_TIME_OFFSET ( 5, 0, .BEHIND. ) ;
#191 = APPROVAL ( #210, 'UNSPECIFIED' ) ;
#192 = APPROVAL ( #50, 'UNSPECIFIED' ) ;
#193 = PERSON_AND_ORGANIZATION ( #2, #138 ) ;
#194 = VERTEX_POINT ( 'NONE', #185 ) ;
#195 = EDGE_CURVE ( 'NONE', #165, #81, #18, .T. ) ;
#196 = ADVANCED_FACE ( 'NONE', ( #149 ), #78, .F. ) ;
#197 = LINE ( 'NONE', #223, #180 ) ;
#198 = AXIS2_PLACEMENT_3D ( 'NONE', #134, #161, #76 ) ;
#199 = APPROVAL_DATE_TIME ( #114, #192 ) ;
#200 = ORIENTED_EDGE ( 'NONE', *, *, #34, .F. ) ;
#201 = CARTESIAN_POINT ( 'NONE',  ( 12.50000000000000000, 19.00000000000000400, 3.000000000000000000 ) ) ;
#202 = PERSON_AND_ORGANIZATION ( #2, #138 ) ;
#203 = FACE_OUTER_BOUND ( 'NONE', #175, .T. ) ;
#204 = CARTESIAN_POINT ( 'NONE',  ( -12.49999999999999500, -19.00000000000000000, 3.000000000000000000 ) ) ;
#205 = CC_DESIGN_PERSON_AND_ORGANIZATION_ASSIGNMENT ( #221, #101, ( #179 ) ) ;
#206 = DIRECTION ( 'NONE',  ( -0.0000000000000000000, -0.0000000000000000000, -1.000000000000000000 ) ) ;
#207 = PERSON_AND_ORGANIZATION ( #2, #138 ) ;
#208 = MECHANICAL_CONTEXT ( 'NONE', #157, 'mechanical' ) ;
#209 = ORIENTED_EDGE ( 'NONE', *, *, #177, .T. ) ;
#210 = APPROVAL_STATUS ( 'not_yet_approved' ) ;
#211 = APPLICATION_PROTOCOL_DEFINITION ( 'international standard', 'config_control_design', 1994, #226 ) ;
#212 = ORIENTED_EDGE ( 'NONE', *, *, #177, .F. ) ;
#213 = EDGE_CURVE ( 'NONE', #27, #117, #141, .T. ) ;
#214 = VERTEX_POINT ( 'NONE', #29 ) ;
#215 = SECURITY_CLASSIFICATION ( '', '', #227 ) ;
#216 = ADVANCED_FACE ( 'NONE', ( #26 ), #13, .F. ) ;
#217 = DIRECTION ( 'NONE',  ( 1.369518533665900300E-016, -1.000000000000000000, 0.0000000000000000000 ) ) ;
#218 = FACE_OUTER_BOUND ( 'NONE', #12, .T. ) ;
#219 = CC_DESIGN_APPROVAL ( #192, ( #170 ) ) ;
#220 = EDGE_CURVE ( 'NONE', #214, #27, #92, .T. ) ;
#221 = PERSON_AND_ORGANIZATION ( #2, #138 ) ;
#222 = VECTOR ( 'NONE', #178, 1000.000000000000000 ) ;
#223 = CARTESIAN_POINT ( 'NONE',  ( 12.50000000000000000, 19.00000000000000400, 3.000000000000000000 ) ) ;
#224 = CARTESIAN_POINT ( 'NONE',  ( -12.49999999999999500, -19.00000000000000000, 3.000000000000000000 ) ) ;
#225 = VECTOR ( 'NONE', #99, 1000.000000000000000 ) ;
#226 = APPLICATION_CONTEXT ( 'configuration controlled 3d designs of mechanical parts and assemblies' ) ;
#227 = SECURITY_CLASSIFICATION_LEVEL ( 'unclassified' ) ;
#228 = APPROVAL ( #67, 'UNSPECIFIED' ) ;
#229 = DATE_AND_TIME ( #104, #10 ) ;
#230 = ADVANCED_BREP_SHAPE_REPRESENTATION ( 'Web Model 68389', ( #155, #171 ), #71 ) ;
#231 = ORIENTED_EDGE ( 'NONE', *, *, #195, .T. ) ;
#232 = CC_DESIGN_PERSON_AND_ORGANIZATION_ASSIGNMENT ( #106, #65, ( #170 ) ) ;
#233 = CALENDAR_DATE ( 2017, 31, 1 ) ;
#234 = EDGE_CURVE ( 'NONE', #87, #214, #197, .T. ) ;
#235 = CC_DESIGN_SECURITY_CLASSIFICATION ( #215, ( #170 ) ) ;
#236 = CC_DESIGN_PERSON_AND_ORGANIZATION_ASSIGNMENT ( #207, #66, ( #127 ) ) ;
#237 = PERSON_AND_ORGANIZATION ( #2, #138 ) ;
ENDSEC;
END-ISO-10303-21;
