ISO-10303-21;
HEADER;
FILE_DESCRIPTION (( 'STEP AP203' ),
    '1' );
FILE_NAME ('step_35948.step',
    '2017-05-22T20:26:28',
    ( '' ),
    ( '' ),
    'SwSTEP 2.0',
    'SolidWorks 2016',
    '' );
FILE_SCHEMA (( 'CONFIG_CONTROL_DESIGN' ));
ENDSEC;

DATA;
#1 = CARTESIAN_POINT ( 'NONE',  ( -37.50000000000000700, 37.49999999999999300, 0.0000000000000000000 ) ) ;
#2 = PRODUCT_DEFINITION_SHAPE ( 'NONE', 'NONE',  #62 ) ;
#3 = CARTESIAN_POINT ( 'NONE',  ( 37.50000000000000700, -37.50000000000001400, 0.0000000000000000000 ) ) ;
#4 = CC_DESIGN_SECURITY_CLASSIFICATION ( #25, ( #45 ) ) ;
#5 = CALENDAR_DATE ( 2017, 22, 5 ) ;
#6 = CARTESIAN_POINT ( 'NONE',  ( -37.49999999999999300, -37.50000000000001400, 1.000000000000000000 ) ) ;
#7 = CC_DESIGN_APPROVAL ( #15, ( #25 ) ) ;
#8 = LOCAL_TIME ( 13, 26, 28.00000000000000000, #14 ) ;
#9 = DIRECTION ( 'NONE',  ( 1.000000000000000000, 0.0000000000000000000, 0.0000000000000000000 ) ) ;
#10 = CARTESIAN_POINT ( 'NONE',  ( 37.50000000000000700, -37.50000000000001400, 1.000000000000000000 ) ) ;
#11 = VECTOR ( 'NONE', #199, 1000.000000000000000 ) ;
#12 = PLANE ( 'NONE',  #224 ) ;
#13 = DIRECTION ( 'NONE',  ( 0.0000000000000000000, 1.000000000000000000, 0.0000000000000000000 ) ) ;
#14 = COORDINATED_UNIVERSAL_TIME_OFFSET ( 7, 0, .BEHIND. ) ;
#15 = APPROVAL ( #158, 'UNSPECIFIED' ) ;
#16 = DIRECTION ( 'NONE',  ( -0.0000000000000000000, 0.0000000000000000000, 1.000000000000000000 ) ) ;
#17 = PLANE ( 'NONE',  #96 ) ;
#18 = CC_DESIGN_DATE_AND_TIME_ASSIGNMENT ( #21, #160, ( #25 ) ) ;
#19 = APPROVAL_PERSON_ORGANIZATION ( #20, #15, #155 ) ;
#20 = PERSON_AND_ORGANIZATION ( #133, #103 ) ;
#21 = DATE_AND_TIME ( #24, #27 ) ;
#22 = CARTESIAN_POINT ( 'NONE',  ( 37.50000000000000000, 37.49999999999999300, 1.000000000000000000 ) ) ;
#23 = CC_DESIGN_PERSON_AND_ORGANIZATION_ASSIGNMENT ( #29, #161, ( #25 ) ) ;
#24 = CALENDAR_DATE ( 2017, 22, 5 ) ;
#25 = SECURITY_CLASSIFICATION ( '', '', #164 ) ;
#26 = CC_DESIGN_PERSON_AND_ORGANIZATION_ASSIGNMENT ( #32, #95, ( #45 ) ) ;
#27 = LOCAL_TIME ( 13, 26, 28.00000000000000000, #28 ) ;
#28 = COORDINATED_UNIVERSAL_TIME_OFFSET ( 7, 0, .BEHIND. ) ;
#29 = PERSON_AND_ORGANIZATION ( #133, #103 ) ;
#30 = CC_DESIGN_PERSON_AND_ORGANIZATION_ASSIGNMENT ( #33, #152, ( #45 ) ) ;
#31 = CARTESIAN_POINT ( 'NONE',  ( 0.0000000000000000000, 0.0000000000000000000, 0.0000000000000000000 ) ) ;
#32 = PERSON_AND_ORGANIZATION ( #133, #103 ) ;
#33 = PERSON_AND_ORGANIZATION ( #133, #103 ) ;
#34 = APPROVAL_DATE_TIME ( #35, #44 ) ;
#35 = DATE_AND_TIME ( #36, #38 ) ;
#36 = CALENDAR_DATE ( 2017, 22, 5 ) ;
#37 = CC_DESIGN_APPROVAL ( #44, ( #45 ) ) ;
#38 = LOCAL_TIME ( 13, 26, 28.00000000000000000, #39 ) ;
#39 = COORDINATED_UNIVERSAL_TIME_OFFSET ( 7, 0, .BEHIND. ) ;
#40 = APPROVAL_PERSON_ORGANIZATION ( #43, #44, #82 ) ;
#41 = DIRECTION ( 'NONE',  ( -9.251858538542970300E-017, 1.000000000000000000, -0.0000000000000000000 ) ) ;
#42 = ADVANCED_FACE ( 'NONE', ( #47 ), #12, .F. ) ;
#43 = PERSON_AND_ORGANIZATION ( #133, #103 ) ;
#44 = APPROVAL ( #85, 'UNSPECIFIED' ) ;
#45 = PRODUCT_DEFINITION_FORMATION_WITH_SPECIFIED_SOURCE ( 'ANY', '', #166, .NOT_KNOWN. ) ;
#46 = DATE_AND_TIME ( #58, #48 ) ;
#47 = FACE_OUTER_BOUND ( 'NONE', #90, .T. ) ;
#48 = LOCAL_TIME ( 13, 26, 28.00000000000000000, #189 ) ;
#49 = APPROVAL_DATE_TIME ( #102, #59 ) ;
#50 = CC_DESIGN_DATE_AND_TIME_ASSIGNMENT ( #46, #143, ( #62 ) ) ;
#51 = CARTESIAN_POINT ( 'NONE',  ( -37.49999999999999300, -37.50000000000001400, 1.000000000000000000 ) ) ;
#52 = DIRECTION ( 'NONE',  ( 1.850371707708594100E-016, -1.000000000000000000, 0.0000000000000000000 ) ) ;
#53 = CC_DESIGN_PERSON_AND_ORGANIZATION_ASSIGNMENT ( #134, #128, ( #62 ) ) ;
#54 = VERTEX_POINT ( 'NONE', #121 ) ;
#55 = LINE ( 'NONE', #84, #79 ) ;
#56 = VECTOR ( 'NONE', #185, 1000.000000000000000 ) ;
#57 = CC_DESIGN_APPROVAL ( #59, ( #62 ) ) ;
#58 = CALENDAR_DATE ( 2017, 22, 5 ) ;
#59 = APPROVAL ( #213, 'UNSPECIFIED' ) ;
#60 = DIRECTION ( 'NONE',  ( -0.0000000000000000000, -0.0000000000000000000, -1.000000000000000000 ) ) ;
#61 = CARTESIAN_POINT ( 'NONE',  ( -37.50000000000000700, 37.49999999999999300, 1.000000000000000000 ) ) ;
#62 = PRODUCT_DEFINITION ( 'UNKNOWN', '', #45, #69 ) ;
#63 = CARTESIAN_POINT ( 'NONE',  ( 37.50000000000000700, -37.50000000000001400, 1.000000000000000000 ) ) ;
#64 = CC_DESIGN_PERSON_AND_ORGANIZATION_ASSIGNMENT ( #91, #217, ( #166 ) ) ;
#65 = CARTESIAN_POINT ( 'NONE',  ( -37.50000000000000700, 37.49999999999999300, 1.000000000000000000 ) ) ;
#66 = AXIS2_PLACEMENT_3D ( 'NONE', #140, #204, #87 ) ;
#67 = CARTESIAN_POINT ( 'NONE',  ( -37.50000000000000700, 37.49999999999999300, 0.0000000000000000000 ) ) ;
#68 = DIRECTION ( 'NONE',  ( 1.000000000000000000, 0.0000000000000000000, 0.0000000000000000000 ) ) ;
#69 = DESIGN_CONTEXT ( 'detailed design', #215, 'design' ) ;
#70 = CARTESIAN_POINT ( 'NONE',  ( -37.49999999999999300, -37.50000000000001400, 0.0000000000000000000 ) ) ;
#71 = ADVANCED_FACE ( 'NONE', ( #191 ), #186, .F. ) ;
#72 = APPLICATION_PROTOCOL_DEFINITION ( 'international standard', 'config_control_design', 1994, #137 ) ;
#73 = ORIENTED_EDGE ( 'NONE', *, *, #76, .F. ) ;
#74 = DIRECTION ( 'NONE',  ( 0.0000000000000000000, -1.000000000000000000, 0.0000000000000000000 ) ) ;
#75 = PLANE ( 'NONE',  #170 ) ;
#76 = EDGE_CURVE ( 'NONE', #54, #167, #196, .T. ) ;
#77 = EDGE_CURVE ( 'NONE', #54, #99, #139, .T. ) ;
#78 = CARTESIAN_POINT ( 'NONE',  ( -37.49999999999999300, -37.50000000000001400, 1.000000000000000000 ) ) ;
#79 = VECTOR ( 'NONE', #68, 1000.000000000000000 ) ;
#80 = CARTESIAN_POINT ( 'NONE',  ( -37.50000000000000700, 37.49999999999999300, 1.000000000000000000 ) ) ;
#81 = EDGE_LOOP ( 'NONE', ( #181, #168, #229, #225 ) ) ;
#82 = APPROVAL_ROLE ( '' ) ;
#83 = PRODUCT_RELATED_PRODUCT_CATEGORY ( 'detail', '', ( #166 ) ) ;
#84 = CARTESIAN_POINT ( 'NONE',  ( -37.49999999999999300, -37.50000000000001400, 1.000000000000000000 ) ) ;
#85 = APPROVAL_STATUS ( 'not_yet_approved' ) ;
#86 = PLANE ( 'NONE',  #117 ) ;
#87 = DIRECTION ( 'NONE',  ( 1.000000000000000000, 0.0000000000000000000, 0.0000000000000000000 ) ) ;
#88 = ORIENTED_EDGE ( 'NONE', *, *, #76, .T. ) ;
#89 = LINE ( 'NONE', #174, #110 ) ;
#90 = EDGE_LOOP ( 'NONE', ( #157, #145, #148, #178 ) ) ;
#91 = PERSON_AND_ORGANIZATION ( #133, #103 ) ;
#92 = MANIFOLD_SOLID_BREP ( 'Boss-Extrude1', #108 ) ;
#93 =( NAMED_UNIT ( * ) PLANE_ANGLE_UNIT ( ) SI_UNIT ( $, .RADIAN. ) );
#94 = CARTESIAN_POINT ( 'NONE',  ( -37.49999999999999300, -37.50000000000001400, 0.0000000000000000000 ) ) ;
#95 = PERSON_AND_ORGANIZATION_ROLE ( 'design_supplier' ) ;
#96 = AXIS2_PLACEMENT_3D ( 'NONE', #234, #188, #223 ) ;
#97 = FACE_OUTER_BOUND ( 'NONE', #147, .T. ) ;
#98 = DIRECTION ( 'NONE',  ( 1.000000000000000000, 1.850371707708594100E-016, -0.0000000000000000000 ) ) ;
#99 = VERTEX_POINT ( 'NONE', #126 ) ;
#100 =( GEOMETRIC_REPRESENTATION_CONTEXT ( 3 ) GLOBAL_UNCERTAINTY_ASSIGNED_CONTEXT ( ( #171 ) ) GLOBAL_UNIT_ASSIGNED_CONTEXT ( ( #138, #93, #163 ) ) REPRESENTATION_CONTEXT ( 'NONE', 'WORKASPACE' ) );
#101 = VECTOR ( 'NONE', #190, 1000.000000000000000 ) ;
#102 = DATE_AND_TIME ( #149, #173 ) ;
#103 = ORGANIZATION ( 'UNSPECIFIED', 'UNSPECIFIED', '' ) ;
#104 = EDGE_CURVE ( 'NONE', #221, #201, #125, .T. ) ;
#105 = LINE ( 'NONE', #6, #101 ) ;
#106 = APPROVAL_DATE_TIME ( #169, #15 ) ;
#107 = CARTESIAN_POINT ( 'NONE',  ( 37.50000000000000000, 37.49999999999999300, 1.000000000000000000 ) ) ;
#108 = CLOSED_SHELL ( 'NONE', ( #177, #42, #187, #122, #182, #71 ) ) ;
#109 = VECTOR ( 'NONE', #198, 1000.000000000000000 ) ;
#110 = VECTOR ( 'NONE', #41, 1000.000000000000000 ) ;
#111 = LINE ( 'NONE', #63, #228 ) ;
#112 = CARTESIAN_POINT ( 'NONE',  ( 37.50000000000000000, 37.49999999999999300, 1.000000000000000000 ) ) ;
#113 = VECTOR ( 'NONE', #146, 1000.000000000000000 ) ;
#114 = VECTOR ( 'NONE', #183, 1000.000000000000000 ) ;
#115 = SHAPE_DEFINITION_REPRESENTATION ( #2, #219 ) ;
#116 = FACE_OUTER_BOUND ( 'NONE', #81, .T. ) ;
#117 = AXIS2_PLACEMENT_3D ( 'NONE', #61, #74, #208 ) ;
#118 = VECTOR ( 'NONE', #52, 1000.000000000000000 ) ;
#119 = LINE ( 'NONE', #70, #109 ) ;
#120 = FACE_OUTER_BOUND ( 'NONE', #141, .T. ) ;
#121 = CARTESIAN_POINT ( 'NONE',  ( -37.50000000000000700, 37.49999999999999300, 1.000000000000000000 ) ) ;
#122 = ADVANCED_FACE ( 'NONE', ( #131 ), #86, .F. ) ;
#123 = LINE ( 'NONE', #1, #118 ) ;
#124 = ORIENTED_EDGE ( 'NONE', *, *, #162, .F. ) ;
#125 = LINE ( 'NONE', #22, #114 ) ;
#126 = CARTESIAN_POINT ( 'NONE',  ( -37.50000000000000700, 37.49999999999999300, 0.0000000000000000000 ) ) ;
#127 = ORIENTED_EDGE ( 'NONE', *, *, #77, .T. ) ;
#128 = PERSON_AND_ORGANIZATION_ROLE ( 'creator' ) ;
#129 = CARTESIAN_POINT ( 'NONE',  ( 37.50000000000000000, 37.49999999999999300, 0.0000000000000000000 ) ) ;
#130 = VECTOR ( 'NONE', #144, 1000.000000000000000 ) ;
#131 = FACE_OUTER_BOUND ( 'NONE', #216, .T. ) ;
#132 = APPROVAL_ROLE ( '' ) ;
#133 = PERSON ( 'UNSPECIFIED', 'UNSPECIFIED', 'UNSPECIFIED', ('UNSPECIFIED'), ('UNSPECIFIED'), ('UNSPECIFIED') ) ;
#134 = PERSON_AND_ORGANIZATION ( #133, #103 ) ;
#135 = VECTOR ( 'NONE', #227, 1000.000000000000000 ) ;
#136 = LINE ( 'NONE', #67, #130 ) ;
#137 = APPLICATION_CONTEXT ( 'configuration controlled 3d designs of mechanical parts and assemblies' ) ;
#138 =( LENGTH_UNIT ( ) NAMED_UNIT ( * ) SI_UNIT ( .MILLI., .METRE. ) );
#139 = LINE ( 'NONE', #233, #11 ) ;
#140 = CARTESIAN_POINT ( 'NONE',  ( 0.0000000000000000000, 0.0000000000000000000, 0.0000000000000000000 ) ) ;
#141 = EDGE_LOOP ( 'NONE', ( #88, #195, #197, #194 ) ) ;
#142 = CARTESIAN_POINT ( 'NONE',  ( 0.0000000000000000000, 0.0000000000000000000, 1.000000000000000000 ) ) ;
#143 = DATE_TIME_ROLE ( 'creation_date' ) ;
#144 = DIRECTION ( 'NONE',  ( -1.000000000000000000, -0.0000000000000000000, -0.0000000000000000000 ) ) ;
#145 = ORIENTED_EDGE ( 'NONE', *, *, #226, .F. ) ;
#146 = DIRECTION ( 'NONE',  ( -1.000000000000000000, -0.0000000000000000000, -0.0000000000000000000 ) ) ;
#147 = EDGE_LOOP ( 'NONE', ( #165, #236, #73, #127 ) ) ;
#148 = ORIENTED_EDGE ( 'NONE', *, *, #205, .F. ) ;
#149 = CALENDAR_DATE ( 2017, 22, 5 ) ;
#150 = AXIS2_PLACEMENT_3D ( 'NONE', #80, #98, #209 ) ;
#151 = EDGE_CURVE ( 'NONE', #201, #156, #184, .T. ) ;
#152 = PERSON_AND_ORGANIZATION_ROLE ( 'creator' ) ;
#153 = ORIENTED_EDGE ( 'NONE', *, *, #237, .F. ) ;
#154 = APPROVAL_PERSON_ORGANIZATION ( #180, #59, #132 ) ;
#155 = APPROVAL_ROLE ( '' ) ;
#156 = VERTEX_POINT ( 'NONE', #129 ) ;
#157 = ORIENTED_EDGE ( 'NONE', *, *, #237, .T. ) ;
#158 = APPROVAL_STATUS ( 'not_yet_approved' ) ;
#159 = COORDINATED_UNIVERSAL_TIME_OFFSET ( 7, 0, .BEHIND. ) ;
#160 = DATE_TIME_ROLE ( 'classification_date' ) ;
#161 = PERSON_AND_ORGANIZATION_ROLE ( 'classification_officer' ) ;
#162 = EDGE_CURVE ( 'NONE', #156, #99, #136, .T. ) ;
#163 =( NAMED_UNIT ( * ) SI_UNIT ( $, .STERADIAN. ) SOLID_ANGLE_UNIT ( ) );
#164 = SECURITY_CLASSIFICATION_LEVEL ( 'unclassified' ) ;
#165 = ORIENTED_EDGE ( 'NONE', *, *, #202, .T. ) ;
#166 = PRODUCT ( 'step_35948', 'step_35948', '', ( #222 ) ) ;
#167 = VERTEX_POINT ( 'NONE', #78 ) ;
#168 = ORIENTED_EDGE ( 'NONE', *, *, #151, .F. ) ;
#169 = DATE_AND_TIME ( #5, #8 ) ;
#170 = AXIS2_PLACEMENT_3D ( 'NONE', #142, #200, #175 ) ;
#171 = UNCERTAINTY_MEASURE_WITH_UNIT (LENGTH_MEASURE( 1.000000000000000100E-005 ), #138, 'distance_accuracy_value', 'NONE');
#172 = VERTEX_POINT ( 'NONE', #3 ) ;
#173 = LOCAL_TIME ( 13, 26, 28.00000000000000000, #159 ) ;
#174 = CARTESIAN_POINT ( 'NONE',  ( 37.50000000000000000, 37.49999999999999300, 0.0000000000000000000 ) ) ;
#175 = DIRECTION ( 'NONE',  ( 1.000000000000000000, 0.0000000000000000000, 0.0000000000000000000 ) ) ;
#176 = PLANE ( 'NONE',  #150 ) ;
#177 = ADVANCED_FACE ( 'NONE', ( #97 ), #176, .F. ) ;
#178 = ORIENTED_EDGE ( 'NONE', *, *, #192, .T. ) ;
#179 = CARTESIAN_POINT ( 'NONE',  ( -37.50000000000000700, 37.49999999999999300, 1.000000000000000000 ) ) ;
#180 = PERSON_AND_ORGANIZATION ( #133, #103 ) ;
#181 = ORIENTED_EDGE ( 'NONE', *, *, #230, .T. ) ;
#182 = ADVANCED_FACE ( 'NONE', ( #120 ), #75, .T. ) ;
#183 = DIRECTION ( 'NONE',  ( -9.251858538542970300E-017, 1.000000000000000000, -0.0000000000000000000 ) ) ;
#184 = LINE ( 'NONE', #107, #56 ) ;
#185 = DIRECTION ( 'NONE',  ( -0.0000000000000000000, -0.0000000000000000000, -1.000000000000000000 ) ) ;
#186 = PLANE ( 'NONE',  #218 ) ;
#187 = ADVANCED_FACE ( 'NONE', ( #116 ), #17, .F. ) ;
#188 = DIRECTION ( 'NONE',  ( -1.000000000000000000, -9.251858538542970300E-017, 0.0000000000000000000 ) ) ;
#189 = COORDINATED_UNIVERSAL_TIME_OFFSET ( 7, 0, .BEHIND. ) ;
#190 = DIRECTION ( 'NONE',  ( -0.0000000000000000000, -0.0000000000000000000, -1.000000000000000000 ) ) ;
#191 = FACE_OUTER_BOUND ( 'NONE', #207, .T. ) ;
#192 = EDGE_CURVE ( 'NONE', #167, #210, #105, .T. ) ;
#193 = ORIENTED_EDGE ( 'NONE', *, *, #202, .F. ) ;
#194 = ORIENTED_EDGE ( 'NONE', *, *, #232, .T. ) ;
#195 = ORIENTED_EDGE ( 'NONE', *, *, #205, .T. ) ;
#196 = LINE ( 'NONE', #179, #135 ) ;
#197 = ORIENTED_EDGE ( 'NONE', *, *, #104, .T. ) ;
#198 = DIRECTION ( 'NONE',  ( 1.000000000000000000, 0.0000000000000000000, 0.0000000000000000000 ) ) ;
#199 = DIRECTION ( 'NONE',  ( -0.0000000000000000000, -0.0000000000000000000, -1.000000000000000000 ) ) ;
#200 = DIRECTION ( 'NONE',  ( -0.0000000000000000000, 0.0000000000000000000, 1.000000000000000000 ) ) ;
#201 = VERTEX_POINT ( 'NONE', #112 ) ;
#202 = EDGE_CURVE ( 'NONE', #99, #210, #123, .T. ) ;
#203 = ORIENTED_EDGE ( 'NONE', *, *, #230, .F. ) ;
#204 = DIRECTION ( 'NONE',  ( 0.0000000000000000000, 0.0000000000000000000, 1.000000000000000000 ) ) ;
#205 = EDGE_CURVE ( 'NONE', #167, #221, #55, .T. ) ;
#206 = ORIENTED_EDGE ( 'NONE', *, *, #151, .T. ) ;
#207 = EDGE_LOOP ( 'NONE', ( #193, #124, #203, #153 ) ) ;
#208 = DIRECTION ( 'NONE',  ( 0.0000000000000000000, -0.0000000000000000000, -1.000000000000000000 ) ) ;
#209 = DIRECTION ( 'NONE',  ( -1.850371707708594100E-016, 1.000000000000000000, 0.0000000000000000000 ) ) ;
#210 = VERTEX_POINT ( 'NONE', #94 ) ;
#211 = ORIENTED_EDGE ( 'NONE', *, *, #77, .F. ) ;
#212 = ORIENTED_EDGE ( 'NONE', *, *, #232, .F. ) ;
#213 = APPROVAL_STATUS ( 'not_yet_approved' ) ;
#214 = APPLICATION_PROTOCOL_DEFINITION ( 'international standard', 'config_control_design', 1994, #215 ) ;
#215 = APPLICATION_CONTEXT ( 'configuration controlled 3d designs of mechanical parts and assemblies' ) ;
#216 = EDGE_LOOP ( 'NONE', ( #220, #211, #212, #206 ) ) ;
#217 = PERSON_AND_ORGANIZATION_ROLE ( 'design_owner' ) ;
#218 = AXIS2_PLACEMENT_3D ( 'NONE', #31, #16, #9 ) ;
#219 = ADVANCED_BREP_SHAPE_REPRESENTATION ( 'step_35948', ( #92, #66 ), #100 ) ;
#220 = ORIENTED_EDGE ( 'NONE', *, *, #162, .T. ) ;
#221 = VERTEX_POINT ( 'NONE', #10 ) ;
#222 = MECHANICAL_CONTEXT ( 'NONE', #137, 'mechanical' ) ;
#223 = DIRECTION ( 'NONE',  ( 9.251858538542970300E-017, -1.000000000000000000, 0.0000000000000000000 ) ) ;
#224 = AXIS2_PLACEMENT_3D ( 'NONE', #51, #13, #231 ) ;
#225 = ORIENTED_EDGE ( 'NONE', *, *, #226, .T. ) ;
#226 = EDGE_CURVE ( 'NONE', #221, #172, #111, .T. ) ;
#227 = DIRECTION ( 'NONE',  ( 1.850371707708594100E-016, -1.000000000000000000, 0.0000000000000000000 ) ) ;
#228 = VECTOR ( 'NONE', #60, 1000.000000000000000 ) ;
#229 = ORIENTED_EDGE ( 'NONE', *, *, #104, .F. ) ;
#230 = EDGE_CURVE ( 'NONE', #172, #156, #89, .T. ) ;
#231 = DIRECTION ( 'NONE',  ( 0.0000000000000000000, -0.0000000000000000000, 1.000000000000000000 ) ) ;
#232 = EDGE_CURVE ( 'NONE', #201, #54, #235, .T. ) ;
#233 = CARTESIAN_POINT ( 'NONE',  ( -37.50000000000000700, 37.49999999999999300, 1.000000000000000000 ) ) ;
#234 = CARTESIAN_POINT ( 'NONE',  ( 37.50000000000000000, 37.49999999999999300, 1.000000000000000000 ) ) ;
#235 = LINE ( 'NONE', #65, #113 ) ;
#236 = ORIENTED_EDGE ( 'NONE', *, *, #192, .F. ) ;
#237 = EDGE_CURVE ( 'NONE', #210, #172, #119, .T. ) ;
ENDSEC;
END-ISO-10303-21;
